  0
SECTION
  2
HEADER
  9
$ACADVER
  1
AC1027
  9
$ACADMAINTVER
 70
   125
  9
$DWGCODEPAGE
  3
ANSI_1252
  9
$REQUIREDVERSIONS
160
                 0
  9
$INSBASE
 10
0.0
 20
0.0
 30
0.0
  9
$EXTMIN
 10
1.000000000000000E+20
 20
1.000000000000000E+20
 30
1.000000000000000E+20
  9
$EXTMAX
 10
-1.000000000000000E+20
 20
-1.000000000000000E+20
 30
-1.000000000000000E+20
  9
$LIMMIN
 10
0.0
 20
0.0
  9
$LIMMAX
 10
12.0
 20
9.0
  9
$ORTHOMODE
 70
     0
  9
$REGENMODE
 70
     1
  9
$FILLMODE
 70
     1
  9
$QTEXTMODE
 70
     0
  9
$MIRRTEXT
 70
     0
  9
$LTSCALE
 40
1.0
  9
$ATTMODE
 70
     1
  9
$TEXTSIZE
 40
0.2
  9
$TRACEWID
 40
0.05
  9
$TEXTSTYLE
  7
Standard
  9
$CLAYER
  8
0
  9
$CELTYPE
  6
ByLayer
  9
$CECOLOR
 62
   256
  9
$CELTSCALE
 40
1.0
  9
$DISPSILH
 70
     0
  9
$DIMSCALE
 40
1.0
  9
$DIMASZ
 40
0.18
  9
$DIMEXO
 40
0.0625
  9
$DIMDLI
 40
0.38
  9
$DIMRND
 40
0.0
  9
$DIMDLE
 40
0.0
  9
$DIMEXE
 40
0.18
  9
$DIMTP
 40
0.0
  9
$DIMTM
 40
0.0
  9
$DIMTXT
 40
0.18
  9
$DIMCEN
 40
0.09
  9
$DIMTSZ
 40
0.0
  9
$DIMTOL
 70
     0
  9
$DIMLIM
 70
     0
  9
$DIMTIH
 70
     1
  9
$DIMTOH
 70
     1
  9
$DIMSE1
 70
     0
  9
$DIMSE2
 70
     0
  9
$DIMTAD
 70
     0
  9
$DIMZIN
 70
     0
  9
$DIMBLK
  1

  9
$DIMASO
 70
     1
  9
$DIMSHO
 70
     1
  9
$DIMPOST
  1

  9
$DIMAPOST
  1

  9
$DIMALT
 70
     0
  9
$DIMALTD
 70
     2
  9
$DIMALTF
 40
25.4
  9
$DIMLFAC
 40
1.0
  9
$DIMTOFL
 70
     0
  9
$DIMTVP
 40
0.0
  9
$DIMTIX
 70
     0
  9
$DIMSOXD
 70
     0
  9
$DIMSAH
 70
     0
  9
$DIMBLK1
  1

  9
$DIMBLK2
  1

  9
$DIMSTYLE
  2
Standard
  9
$DIMCLRD
 70
     0
  9
$DIMCLRE
 70
     0
  9
$DIMCLRT
 70
     0
  9
$DIMTFAC
 40
1.0
  9
$DIMGAP
 40
0.09
  9
$DIMJUST
 70
     0
  9
$DIMSD1
 70
     0
  9
$DIMSD2
 70
     0
  9
$DIMTOLJ
 70
     1
  9
$DIMTZIN
 70
     0
  9
$DIMALTZ
 70
     0
  9
$DIMALTTZ
 70
     0
  9
$DIMUPT
 70
     0
  9
$DIMDEC
 70
     4
  9
$DIMTDEC
 70
     4
  9
$DIMALTU
 70
     2
  9
$DIMALTTD
 70
     2
  9
$DIMTXSTY
  7
Standard
  9
$DIMAUNIT
 70
     0
  9
$DIMADEC
 70
     0
  9
$DIMALTRND
 40
0.0
  9
$DIMAZIN
 70
     0
  9
$DIMDSEP
 70
    46
  9
$DIMATFIT
 70
     3
  9
$DIMFRAC
 70
     0
  9
$DIMLDRBLK
  1

  9
$DIMLUNIT
 70
     2
  9
$DIMLWD
 70
    -2
  9
$DIMLWE
 70
    -2
  9
$DIMTMOVE
 70
     0
  9
$DIMFXL
 40
1.0
  9
$DIMFXLON
 70
     0
  9
$DIMJOGANG
 40
0.7853981633974483
  9
$DIMTFILL
 70
     0
  9
$DIMTFILLCLR
 70
     0
  9
$DIMARCSYM
 70
     0
  9
$DIMLTYPE
  6

  9
$DIMLTEX1
  6

  9
$DIMLTEX2
  6

  9
$DIMTXTDIRECTION
 70
     0
  9
$LUNITS
 70
     2
  9
$LUPREC
 70
     4
  9
$SKETCHINC
 40
0.1
  9
$FILLETRAD
 40
0.0
  9
$AUNITS
 70
     0
  9
$AUPREC
 70
     0
  9
$MENU
  1
.
  9
$ELEVATION
 40
0.0
  9
$PELEVATION
 40
0.0
  9
$THICKNESS
 40
0.0
  9
$LIMCHECK
 70
     0
  9
$CHAMFERA
 40
0.0
  9
$CHAMFERB
 40
0.0
  9
$CHAMFERC
 40
0.0
  9
$CHAMFERD
 40
0.0
  9
$SKPOLY
 70
     0
  9
$TDCREATE
 40
2460803.499143519
  9
$TDUCREATE
 40
2460803.499143519
  9
$TDUPDATE
 40
2460803.499143519
  9
$TDUUPDATE
 40
2460803.499143519
  9
$TDINDWG
 40
0.0000000000
  9
$TDUSRTIMER
 40
0.0000000000
  9
$USRTIMER
 70
     1
  9
$ANGBASE
 50
0.0
  9
$ANGDIR
 70
     0
  9
$PDMODE
 70
     0
  9
$PDSIZE
 40
0.0
  9
$PLINEWID
 40
0.0
  9
$SPLFRAME
 70
     0
  9
$SPLINETYPE
 70
     6
  9
$SPLINESEGS
 70
     8
  9
$HANDSEED
  5
141
  9
$SURFTAB1
 70
     6
  9
$SURFTAB2
 70
     6
  9
$SURFTYPE
 70
     6
  9
$SURFU
 70
     6
  9
$SURFV
 70
     6
  9
$UCSBASE
  2

  9
$UCSNAME
  2

  9
$UCSORG
 10
0.0
 20
0.0
 30
0.0
  9
$UCSXDIR
 10
1.0
 20
0.0
 30
0.0
  9
$UCSYDIR
 10
0.0
 20
1.0
 30
0.0
  9
$UCSORTHOREF
  2

  9
$UCSORTHOVIEW
 70
     0
  9
$UCSORGTOP
 10
0.0
 20
0.0
 30
0.0
  9
$UCSORGBOTTOM
 10
0.0
 20
0.0
 30
0.0
  9
$UCSORGLEFT
 10
0.0
 20
0.0
 30
0.0
  9
$UCSORGRIGHT
 10
0.0
 20
0.0
 30
0.0
  9
$UCSORGFRONT
 10
0.0
 20
0.0
 30
0.0
  9
$UCSORGBACK
 10
0.0
 20
0.0
 30
0.0
  9
$PUCSBASE
  2

  9
$PUCSNAME
  2

  9
$PUCSORG
 10
0.0
 20
0.0
 30
0.0
  9
$PUCSXDIR
 10
1.0
 20
0.0
 30
0.0
  9
$PUCSYDIR
 10
0.0
 20
1.0
 30
0.0
  9
$PUCSORTHOREF
  2

  9
$PUCSORTHOVIEW
 70
     0
  9
$PUCSORGTOP
 10
0.0
 20
0.0
 30
0.0
  9
$PUCSORGBOTTOM
 10
0.0
 20
0.0
 30
0.0
  9
$PUCSORGLEFT
 10
0.0
 20
0.0
 30
0.0
  9
$PUCSORGRIGHT
 10
0.0
 20
0.0
 30
0.0
  9
$PUCSORGFRONT
 10
0.0
 20
0.0
 30
0.0
  9
$PUCSORGBACK
 10
0.0
 20
0.0
 30
0.0
  9
$USERI1
 70
     0
  9
$USERI2
 70
     0
  9
$USERI3
 70
     0
  9
$USERI4
 70
     0
  9
$USERI5
 70
     0
  9
$USERR1
 40
0.0
  9
$USERR2
 40
0.0
  9
$USERR3
 40
0.0
  9
$USERR4
 40
0.0
  9
$USERR5
 40
0.0
  9
$WORLDVIEW
 70
     1
  9
$SHADEDGE
 70
     3
  9
$SHADEDIF
 70
    70
  9
$TILEMODE
 70
     1
  9
$MAXACTVP
 70
    64
  9
$PINSBASE
 10
0.0
 20
0.0
 30
0.0
  9
$PLIMCHECK
 70
     0
  9
$PEXTMIN
 10
1.000000000000000E+20
 20
1.000000000000000E+20
 30
1.000000000000000E+20
  9
$PEXTMAX
 10
-1.000000000000000E+20
 20
-1.000000000000000E+20
 30
-1.000000000000000E+20
  9
$PLIMMIN
 10
0.0
 20
0.0
  9
$PLIMMAX
 10
12.0
 20
9.0
  9
$UNITMODE
 70
     0
  9
$VISRETAIN
 70
     1
  9
$PLINEGEN
 70
     0
  9
$PSLTSCALE
 70
     1
  9
$TREEDEPTH
 70
  3020
  9
$CMLSTYLE
  2
Standard
  9
$CMLJUST
 70
     0
  9
$CMLSCALE
 40
1.0
  9
$PROXYGRAPHICS
 70
     1
  9
$MEASUREMENT
 70
     0
  9
$CELWEIGHT
370
    -1
  9
$ENDCAPS
280
     0
  9
$JOINSTYLE
280
     0
  9
$LWDISPLAY
290
     0
  9
$INSUNITS
 70
     4
  9
$HYPERLINKBASE
  1

  9
$STYLESHEET
  1

  9
$XEDIT
290
     1
  9
$CEPSNTYPE
380
     0
  9
$PSTYLEMODE
290
     1
  9
$FINGERPRINTGUID
  2
{7A008051-AEEA-DF4A-AC31-C35A148E085A}
  9
$VERSIONGUID
  2
{8A6BE619-EC64-A84F-9011-792A7006F3D1}
  9
$EXTNAMES
290
     1
  9
$PSVPSCALE
 40
0.0
  9
$OLESTARTUP
290
     0
  9
$SORTENTS
280
   127
  9
$INDEXCTL
280
     0
  9
$HIDETEXT
280
     1
  9
$XCLIPFRAME
280
     2
  9
$HALOGAP
280
     0
  9
$OBSCOLOR
 70
   257
  9
$OBSLTYPE
280
     0
  9
$INTERSECTIONDISPLAY
280
     0
  9
$INTERSECTIONCOLOR
 70
   257
  9
$DIMASSOC
280
     2
  9
$PROJECTNAME
  1

  9
$CAMERADISPLAY
290
     0
  9
$LENSLENGTH
 40
50.0
  9
$CAMERAHEIGHT
 40
0.0
  9
$STEPSPERSEC
 40
2.0
  9
$STEPSIZE
 40
6.0
  9
$3DDWFPREC
 40
2.0
  9
$PSOLWIDTH
 40
0.25
  9
$PSOLHEIGHT
 40
4.0
  9
$LOFTANG1
 40
1.570796326794896
  9
$LOFTANG2
 40
1.570796326794896
  9
$LOFTMAG1
 40
0.0
  9
$LOFTMAG2
 40
0.0
  9
$LOFTPARAM
 70
     7
  9
$LOFTNORMALS
280
     1
  9
$LATITUDE
 40
37.795
  9
$LONGITUDE
 40
-122.394
  9
$NORTHDIRECTION
 40
0.0
  9
$TIMEZONE
 70
 -8000
  9
$LIGHTGLYPHDISPLAY
280
     1
  9
$TILEMODELIGHTSYNCH
280
     1
  9
$CMATERIAL
347
11
  9
$SOLIDHIST
280
     0
  9
$SHOWHIST
280
     1
  9
$DWFFRAME
280
     2
  9
$DGNFRAME
280
     0
  9
$REALWORLDSCALE
290
     1
  9
$INTERFERECOLOR
 62
     1
  9
$INTERFEREOBJVS
345
33
  9
$INTERFEREVPVS
346
30
  9
$CSHADOW
280
     0
  9
$SHADOWPLANELOCATION
 40
0.0
  0
ENDSEC
  0
SECTION
  2
CLASSES
  0
CLASS
  1
ACDBDICTIONARYWDFLT
  2
AcDbDictionaryWithDefault
  3
ObjectDBX Classes
 90
        0
 91
        1
280
     0
281
     0
  0
CLASS
  1
MATERIAL
  2
AcDbMaterial
  3
ObjectDBX Classes
 90
     1153
 91
        3
280
     0
281
     0
  0
CLASS
  1
VISUALSTYLE
  2
AcDbVisualStyle
  3
ObjectDBX Classes
 90
     4095
 91
       24
280
     0
281
     0
  0
CLASS
  1
SCALE
  2
AcDbScale
  3
ObjectDBX Classes
 90
     1153
 91
       17
280
     0
281
     0
  0
CLASS
  1
TABLESTYLE
  2
AcDbTableStyle
  3
ObjectDBX Classes
 90
     4095
 91
        1
280
     0
281
     0
  0
CLASS
  1
MLEADERSTYLE
  2
AcDbMLeaderStyle
  3
ACDB_MLEADERSTYLE_CLASS
 90
     4095
 91
        1
280
     0
281
     0
  0
CLASS
  1
ACDBSECTIONVIEWSTYLE
  2
AcDbSectionViewStyle
  3
ObjectDBX Classes
 90
     1025
 91
        1
280
     0
281
     0
  0
CLASS
  1
ACDBDETAILVIEWSTYLE
  2
AcDbDetailViewStyle
  3
ObjectDBX Classes
 90
     1025
 91
        1
280
     0
281
     0
  0
CLASS
  1
DICTIONARYVAR
  2
AcDbDictionaryVar
  3
ObjectDBX Classes
 90
        0
 91
        5
280
     0
281
     0
  0
CLASS
  1
CELLSTYLEMAP
  2
AcDbCellStyleMap
  3
ObjectDBX Classes
 90
     1152
 91
        1
280
     0
281
     0
  0
ENDSEC
  0
SECTION
  2
TABLES
  0
TABLE
  2
VPORT
  5
8
330
0
100
AcDbSymbolTable
 70
     1
1001
ACAD
1000
DbSaveVer
1071
      421
  0
VPORT
  5
57
330
8
100
AcDbSymbolTableRecord
100
AcDbViewportTableRecord
  2
*Active
 70
     0
 10
0.0
 20
0.0
 11
1.0
 21
1.0
 12
500.0
 22
500.0
 13
0.0
 23
0.0
 14
1.0
 24
1.0
 15
0.0
 25
0.0
 16
0.0
 26
0.0
 36
1.0
 17
0.0
 27
0.0
 37
0.0
 40
12.0
 41
1.0
 42
50.0
 43
0.0
 44
0.0
 50
0.0
 51
0.0
 71
     0
 72
   100
 73
     1
 74
     1
 75
     0
 76
     0
 77
     0
 78
     0
281
     0
 65
     1
110
0.0
120
0.0
130
0.0
111
1.0
121
0.0
131
0.0
112
0.0
122
1.0
132
0.0
 79
     0
146
0.0
 60
     3
 61
     5
292
     1
282
     1
141
0.0
142
0.0
 63
   250
421
  3355443
  0
ENDTAB
  0
TABLE
  2
LTYPE
  5
5
330
0
100
AcDbSymbolTable
 70
     1
  0
LTYPE
  5
5B
330
5
100
AcDbSymbolTableRecord
100
AcDbLinetypeTableRecord
  2
ByBlock
 70
     0
  3

 72
    65
 73
     0
 40
0.0
  0
LTYPE
  5
5C
330
5
100
AcDbSymbolTableRecord
100
AcDbLinetypeTableRecord
  2
ByLayer
 70
     0
  3

 72
    65
 73
     0
 40
0.0
  0
LTYPE
  5
5D
330
5
100
AcDbSymbolTableRecord
100
AcDbLinetypeTableRecord
  2
Continuous
 70
     0
  3
Solid line
 72
    65
 73
     0
 40
0.0
  0
ENDTAB
  0
TABLE
  2
LAYER
  5
2
330
0
100
AcDbSymbolTable
 70
     2
  0
LAYER
  5
54
330
2
100
AcDbSymbolTableRecord
100
AcDbLayerTableRecord
  2
0
 70
     0
 62
     7
  6
Continuous
370
    -3
390
F
347
21
348
0
  0
LAYER
  5
7A
330
2
100
AcDbSymbolTableRecord
100
AcDbLayerTableRecord
  2
RC Hull Skeleton vFinale v2_Sketch1
 70
     0
 62
     7
  6
Continuous
370
    -3
390
F
347
21
348
0
1001
NFusion_SketchTransform
1000
1.000000;0.000000;0.000000;0.000000;0.000000;1.000000;0.000000;0.000000;0.000000;0.000000;1.000000;0.000000;0.000000;0.000000;0.000000;1.000000
  0
ENDTAB
  0
TABLE
  2
STYLE
  5
3
330
0
100
AcDbSymbolTable
 70
     2
  0
STYLE
  5
55
330
3
100
AcDbSymbolTableRecord
100
AcDbTextStyleTableRecord
  2
Standard
 70
     0
 40
0.0
 41
1.0
 50
0.0
 71
     0
 42
0.2
  3
txt
  4

  0
STYLE
  5
5A
330
3
100
AcDbSymbolTableRecord
100
AcDbTextStyleTableRecord
  2
Annotative
 70
     0
 40
0.0
 41
1.0
 50
0.0
 71
     0
 42
0.2
  3
txt
  4

1001
AcadAnnotative
1000
AnnotativeData
1002
{
1070
     1
1070
     1
1002
}
  0
ENDTAB
  0
TABLE
  2
VIEW
  5
6
330
0
100
AcDbSymbolTable
 70
     0
  0
ENDTAB
  0
TABLE
  2
UCS
  5
7
330
0
100
AcDbSymbolTable
 70
     0
  0
ENDTAB
  0
TABLE
  2
APPID
  5
9
330
0
100
AcDbSymbolTable
 70
     4
  0
APPID
  5
56
330
9
100
AcDbSymbolTableRecord
100
AcDbRegAppTableRecord
  2
ACAD
 70
     0
  0
APPID
  5
5E
330
9
100
AcDbSymbolTableRecord
100
AcDbRegAppTableRecord
  2
AcadAnnotative
 70
     0
  0
APPID
  5
78
330
9
100
AcDbSymbolTableRecord
100
AcDbRegAppTableRecord
  2
EDIT_IN_FUSION_ACAD_ADDIN
 70
     0
  0
APPID
  5
79
330
9
100
AcDbSymbolTableRecord
100
AcDbRegAppTableRecord
  2
NFusion_SketchTransform
 70
     0
  0
ENDTAB
  0
TABLE
  2
DIMSTYLE
  5
A
330
0
100
AcDbSymbolTable
 70
     2
100
AcDbDimStyleTable
 71
     0
  0
DIMSTYLE
105
58
330
A
100
AcDbSymbolTableRecord
100
AcDbDimStyleTableRecord
  2
Standard
 70
     0
340
55
  0
DIMSTYLE
105
59
330
A
100
AcDbSymbolTableRecord
100
AcDbDimStyleTableRecord
  2
Annotative
 70
     0
340
55
1001
AcadAnnotative
1000
AnnotativeData
1002
{
1070
     1
1070
     1
1002
}
  0
ENDTAB
  0
TABLE
  2
BLOCK_RECORD
  5
1
330
0
100
AcDbSymbolTable
 70
     1
  0
BLOCK_RECORD
  5
70
330
1
100
AcDbSymbolTableRecord
100
AcDbBlockTableRecord
  2
*Model_Space
340
73
 70
     0
280
     1
281
     0
  0
BLOCK_RECORD
  5
6C
330
1
100
AcDbSymbolTableRecord
100
AcDbBlockTableRecord
  2
*Paper_Space
340
6F
 70
     0
280
     1
281
     0
  0
BLOCK_RECORD
  5
74
330
1
100
AcDbSymbolTableRecord
100
AcDbBlockTableRecord
  2
*Paper_Space0
340
77
 70
     0
280
     1
281
     0
  0
ENDTAB
  0
ENDSEC
  0
SECTION
  2
BLOCKS
  0
BLOCK
  5
71
330
70
100
AcDbEntity
  8
0
100
AcDbBlockBegin
  2
*Model_Space
 70
     0
 10
0.0
 20
0.0
 30
0.0
  3
*Model_Space
  1

  0
ENDBLK
  5
72
330
70
100
AcDbEntity
  8
0
100
AcDbBlockEnd
  0
BLOCK
  5
6D
330
6C
100
AcDbEntity
 67
     1
  8
0
100
AcDbBlockBegin
  2
*Paper_Space
 70
     0
 10
0.0
 20
0.0
 30
0.0
  3
*Paper_Space
  1

  0
ENDBLK
  5
6E
330
6C
100
AcDbEntity
 67
     1
  8
0
100
AcDbBlockEnd
  0
BLOCK
  5
75
330
74
100
AcDbEntity
 67
     1
  8
0
100
AcDbBlockBegin
  2
*Paper_Space0
 70
     0
 10
0.0
 20
0.0
 30
0.0
  3
*Paper_Space0
  1

  0
ENDBLK
  5
76
330
74
100
AcDbEntity
 67
     1
  8
0
100
AcDbBlockEnd
  0
ENDSEC
  0
SECTION
  2
ENTITIES
  0
POINT
  5
7B
330
70
100
AcDbEntity
  8
RC Hull Skeleton vFinale v2_Sketch1
100
AcDbPoint
 10
885.0
 20
-150.0
 30
0.0
  0
POINT
  5
7C
330
70
100
AcDbEntity
  8
RC Hull Skeleton vFinale v2_Sketch1
100
AcDbPoint
 10
1030.0
 20
420.0
 30
0.0
  0
POINT
  5
7D
330
70
100
AcDbEntity
  8
RC Hull Skeleton vFinale v2_Sketch1
100
AcDbPoint
 10
725.0000108033418
 20
-44.99999962747097
 30
0.0
  0
POINT
  5
7E
330
70
100
AcDbEntity
  8
RC Hull Skeleton vFinale v2_Sketch1
100
AcDbPoint
 10
0.0
 20
0.0
 30
0.0
  0
POINT
  5
7F
330
70
100
AcDbEntity
  8
RC Hull Skeleton vFinale v2_Sketch1
100
AcDbPoint
 10
725.0000108033418
 20
-44.00000065565109
 30
0.0
  0
POINT
  5
80
330
70
100
AcDbEntity
  8
RC Hull Skeleton vFinale v2_Sketch1
100
AcDbPoint
 10
970.0
 20
25.0
 30
0.0
  0
POINT
  5
81
330
70
100
AcDbEntity
  8
RC Hull Skeleton vFinale v2_Sketch1
100
AcDbPoint
 10
944.0000140666962
 20
2.000000029802322
 30
0.0
  0
POINT
  5
82
330
70
100
AcDbEntity
  8
RC Hull Skeleton vFinale v2_Sketch1
100
AcDbPoint
 10
725.0000108033418
 20
25.00000037252903
 30
0.0
  0
POINT
  5
83
330
70
100
AcDbEntity
  8
RC Hull Skeleton vFinale v2_Sketch1
100
AcDbPoint
 10
725.0000108033418
 20
-78.70163109338941
 30
0.0
  0
POINT
  5
84
330
70
100
AcDbEntity
  8
RC Hull Skeleton vFinale v2_Sketch1
100
AcDbPoint
 10
725.0000108033418
 20
30.00000149011612
 30
0.0
  0
POINT
  5
85
330
70
100
AcDbEntity
  8
RC Hull Skeleton vFinale v2_Sketch1
100
AcDbPoint
 10
890.0
 20
30.0
 30
0.0
  0
POINT
  5
86
330
70
100
AcDbEntity
  8
RC Hull Skeleton vFinale v2_Sketch1
100
AcDbPoint
 10
967.0
 20
25.0
 30
0.0
  0
POINT
  5
87
330
70
100
AcDbEntity
  8
RC Hull Skeleton vFinale v2_Sketch1
100
AcDbPoint
 10
725.0000096857547
 20
100.0000014901161
 30
0.0
  0
POINT
  5
88
330
70
100
AcDbEntity
  8
RC Hull Skeleton vFinale v2_Sketch1
100
AcDbPoint
 10
725.0000108033418
 20
-106.0000012429442
 30
0.0
  0
POINT
  5
89
330
70
100
AcDbEntity
  8
RC Hull Skeleton vFinale v2_Sketch1
100
AcDbPoint
 10
645.0
 20
-200.0
 30
0.0
  0
POINT
  5
8A
330
70
100
AcDbEntity
  8
RC Hull Skeleton vFinale v2_Sketch1
100
AcDbPoint
 10
665.0
 20
-150.0
 30
0.0
  0
POINT
  5
8B
330
70
100
AcDbEntity
  8
RC Hull Skeleton vFinale v2_Sketch1
100
AcDbPoint
 10
970.0
 20
-33.95756113408107
 30
0.0
  0
LINE
  5
8C
330
70
100
AcDbEntity
  8
RC Hull Skeleton vFinale v2_Sketch1
100
AcDbLine
 10
645.0000096857413
 20
75.0000014901158
 30
0.0
 11
648.0000096857414
 21
75.0000014901158
 31
0.0
  0
LINE
  5
8D
330
70
100
AcDbEntity
  8
RC Hull Skeleton vFinale v2_Sketch1
100
AcDbLine
 10
802.0000119209415
 20
72.00000149012272
 30
0.0
 11
725.0000108033418
 21
30.00000149011611
 31
0.0
  0
LINE
  5
8E
330
70
100
AcDbEntity
  8
RC Hull Skeleton vFinale v2_Sketch1
100
AcDbLine
 10
648.0000096857548
 20
97.00000149011613
 30
0.0
 11
648.0000096857548
 21
100.0000014901161
 31
0.0
  0
LINE
  5
8F
330
70
100
AcDbEntity
  8
RC Hull Skeleton vFinale v2_Sketch1
100
AcDbLine
 10
805.0000119209414
 20
97.00000149011572
 30
0.0
 11
802.0000119209289
 21
97.00000149011613
 31
0.0
  0
LINE
  5
90
330
70
100
AcDbEntity
  8
RC Hull Skeleton vFinale v2_Sketch1
100
AcDbLine
 10
725.0000119209289
 20
93.00000149011612
 30
0.0
 11
790.5867743034333
 21
93.00000149011612
 31
0.0
  0
ARC
  5
91
330
70
100
AcDbEntity
  8
RC Hull Skeleton vFinale v2_Sketch1
100
AcDbCircle
 10
725.0000108033418
 20
60.7553677810172
 30
0.0
 40
20.00000000000051
100
AcDbArc
 50
241.3895406836242
 51
298.6104593163755
  0
LINE
  5
92
330
70
100
AcDbEntity
  8
RC Hull Skeleton vFinale v2_Sketch1
100
AcDbLine
 10
810.0000120699405
 20
100.0000014901161
 30
0.0
 11
970.0000120699405
 21
100.0000014901161
 31
0.0
  0
LINE
  5
93
330
70
100
AcDbEntity
  8
RC Hull Skeleton vFinale v2_Sketch1
100
AcDbLine
 10
810.0000120699405
 20
100.0000014901161
 30
0.0
 11
810.0000120699405
 21
72.00000149011612
 31
0.0
  0
LINE
  5
94
330
70
100
AcDbEntity
  8
RC Hull Skeleton vFinale v2_Sketch1
100
AcDbLine
 10
810.0000120699405
 20
72.00000149011612
 30
0.0
 11
890.0
 21
30.00000000000001
 31
0.0
  0
LINE
  5
95
330
70
100
AcDbEntity
  8
RC Hull Skeleton vFinale v2_Sketch1
100
AcDbLine
 10
645.0000096112489
 20
22.00000037252903
 30
0.0
 11
645.0000096112489
 21
0.0000003725290298
 31
0.0
  0
LINE
  5
96
330
70
100
AcDbEntity
  8
RC Hull Skeleton vFinale v2_Sketch1
100
AcDbLine
 10
645.0000096857413
 20
97.00000149011572
 30
0.0
 11
645.0000096857413
 21
75.0000014901158
 31
0.0
  0
LINE
  5
97
330
70
100
AcDbEntity
  8
RC Hull Skeleton vFinale v2_Sketch1
100
AcDbLine
 10
645.0000096112489
 20
0.0000003725290298
 30
0.0
 11
648.0000096112489
 21
0.0000003725290298
 31
0.0
  0
LINE
  5
98
330
70
100
AcDbEntity
  8
RC Hull Skeleton vFinale v2_Sketch1
100
AcDbLine
 10
645.0000096857413
 20
97.00000149011572
 30
0.0
 11
648.0000096857546
 21
97.00000149011613
 31
0.0
  0
LINE
  5
99
330
70
100
AcDbEntity
  8
RC Hull Skeleton vFinale v2_Sketch1
100
AcDbLine
 10
648.0000096857414
 20
72.00000149012272
 30
0.0
 11
725.0000108033418
 21
30.00000149011611
 31
0.0
  0
LINE
  5
9A
330
70
100
AcDbEntity
  8
RC Hull Skeleton vFinale v2_Sketch1
100
AcDbLine
 10
802.0000119209289
 20
97.00000149011613
 30
0.0
 11
802.0000119209289
 21
100.0000014901161
 31
0.0
  0
ARC
  5
9B
330
70
100
AcDbEntity
  8
RC Hull Skeleton vFinale v2_Sketch1
100
AcDbCircle
 10
659.4132473032503
 20
84.00000149011615
 30
0.0
 40
8.999999999999968
100
AcDbArc
 50
89.99999999999927
 51
241.3895406836245
  0
LINE
  5
9C
330
70
100
AcDbEntity
  8
RC Hull Skeleton vFinale v2_Sketch1
100
AcDbLine
 10
725.0000119209289
 20
100.0000014901161
 30
0.0
 11
802.0000119209289
 21
100.0000014901161
 31
0.0
  0
LINE
  5
9D
330
70
100
AcDbEntity
  8
RC Hull Skeleton vFinale v2_Sketch1
100
AcDbLine
 10
725.0000096857547
 20
93.00000149011612
 30
0.0
 11
659.4132473032503
 21
93.00000149011612
 31
0.0
  0
LINE
  5
9E
330
70
100
AcDbEntity
  8
RC Hull Skeleton vFinale v2_Sketch1
100
AcDbLine
 10
802.0000119209415
 20
75.00000149011572
 30
0.0
 11
802.0000119209415
 21
72.00000149012272
 31
0.0
  0
LINE
  5
9F
330
70
100
AcDbEntity
  8
RC Hull Skeleton vFinale v2_Sketch1
100
AcDbLine
 10
655.1035781753332
 20
76.09894130759132
 30
0.0
 11
715.4229682968595
 21
43.19745626429486
 31
0.0
  0
LINE
  5
A0
330
70
100
AcDbEntity
  8
RC Hull Skeleton vFinale v2_Sketch1
100
AcDbLine
 10
725.0000096857547
 20
100.0000014901161
 30
0.0
 11
648.0000096857548
 21
100.0000014901161
 31
0.0
  0
ARC
  5
A1
330
70
100
AcDbEntity
  8
RC Hull Skeleton vFinale v2_Sketch1
100
AcDbCircle
 10
790.5867743034335
 20
84.00000149011615
 30
0.0
 40
8.999999999999964
100
AcDbArc
 50
298.6104593163755
 51
90.00000000000147
  0
LINE
  5
A2
330
70
100
AcDbEntity
  8
RC Hull Skeleton vFinale v2_Sketch1
100
AcDbLine
 10
805.0000119209414
 20
97.00000149011572
 30
0.0
 11
805.0000119209414
 21
75.00000149011572
 31
0.0
  0
LINE
  5
A3
330
70
100
AcDbEntity
  8
RC Hull Skeleton vFinale v2_Sketch1
100
AcDbLine
 10
794.8964434313504
 20
76.09894130759132
 30
0.0
 11
734.5770533098242
 21
43.19745626429485
 31
0.0
  0
LINE
  5
A4
330
70
100
AcDbEntity
  8
RC Hull Skeleton vFinale v2_Sketch1
100
AcDbLine
 10
970.0000120699405
 20
100.0000014901161
 30
0.0
 11
970.0000120699405
 21
72.00000149011612
 31
0.0
  0
LINE
  5
A5
330
70
100
AcDbEntity
  8
RC Hull Skeleton vFinale v2_Sketch1
100
AcDbLine
 10
970.0000120699405
 20
72.00000149011612
 30
0.0
 11
890.0
 21
30.00000000000001
 31
0.0
  0
LINE
  5
A6
330
70
100
AcDbEntity
  8
RC Hull Skeleton vFinale v2_Sketch1
100
AcDbLine
 10
648.0000096112489
 20
25.00000037252903
 30
0.0
 11
723.4950108033419
 21
25.00000037252903
 31
0.0
  0
LINE
  5
A7
330
70
100
AcDbEntity
  8
RC Hull Skeleton vFinale v2_Sketch1
100
AcDbLine
 10
648.0000096112489
 20
25.00000037252903
 30
0.0
 11
648.0000096112489
 21
22.00000037252903
 31
0.0
  0
LINE
  5
A8
330
70
100
AcDbEntity
  8
RC Hull Skeleton vFinale v2_Sketch1
100
AcDbLine
 10
805.0000119209414
 20
75.00000149011572
 30
0.0
 11
802.0000119209415
 21
75.00000149011572
 31
0.0
  0
LINE
  5
A9
330
70
100
AcDbEntity
  8
RC Hull Skeleton vFinale v2_Sketch1
100
AcDbLine
 10
648.0000096857414
 20
75.0000014901158
 30
0.0
 11
648.0000096857414
 21
72.00000149012272
 31
0.0
  0
LINE
  5
AA
330
70
100
AcDbEntity
  8
RC Hull Skeleton vFinale v2_Sketch1
100
AcDbLine
 10
648.0000096112489
 20
22.00000037252903
 30
0.0
 11
645.0000096112489
 21
22.00000037252903
 31
0.0
  0
LINE
  5
AB
330
70
100
AcDbEntity
  8
RC Hull Skeleton vFinale v2_Sketch1
100
AcDbLine
 10
805.0000119954347
 20
0.0000003725290298
 30
0.0
 11
802.0000119954348
 21
0.0000003725290298
 31
0.0
  0
ARC
  5
AC
330
70
100
AcDbEntity
  8
RC Hull Skeleton vFinale v2_Sketch1
100
AcDbCircle
 10
790.5867743743091
 20
9.000000372529028
 30
0.0
 40
8.999999999999991
100
AcDbArc
 50
298.6104592930699
 51
90.0
  0
LINE
  5
AD
330
70
100
AcDbEntity
  8
RC Hull Skeleton vFinale v2_Sketch1
100
AcDbLine
 10
802.0000119954348
 20
25.00000037252903
 30
0.0
 11
802.0000119954348
 21
22.00000037252903
 31
0.0
  0
LINE
  5
AE
330
70
100
AcDbEntity
  8
RC Hull Skeleton vFinale v2_Sketch1
100
AcDbLine
 10
664.0000108053827
 20
-70.60000000000139
 30
0.0
 11
664.0000108053827
 21
-73.59999998719209
 31
0.0
  0
LINE
  5
AF
330
70
100
AcDbEntity
  8
RC Hull Skeleton vFinale v2_Sketch1
100
AcDbLine
 10
668.9422605622734
 20
-68.29891921872932
 30
0.0
 11
709.1855028806419
 21
-89.67401841761107
 31
0.0
  0
LINE
  5
B0
330
70
100
AcDbEntity
  8
RC Hull Skeleton vFinale v2_Sketch1
100
AcDbLine
 10
805.0000119954347
 20
22.00000037252903
 30
0.0
 11
805.0000119954347
 21
0.0000003725290298
 31
0.0
  0
LINE
  5
B1
330
70
100
AcDbEntity
  8
RC Hull Skeleton vFinale v2_Sketch1
100
AcDbLine
 10
664.0000108053827
 20
-73.59999998719209
 30
0.0
 11
723.2296481052042
 21
-105.0596761927444
 31
0.0
  0
ARC
  5
B2
330
70
100
AcDbEntity
  8
RC Hull Skeleton vFinale v2_Sketch1
100
AcDbCircle
 10
742.0000108033417
 20
8.000000372529127
 30
0.0
 40
9.9999999999999
100
AcDbArc
 50
89.99999999999934
 51
180.0000000000006
  0
LINE
  5
B3
330
70
100
AcDbEntity
  8
RC Hull Skeleton vFinale v2_Sketch1
100
AcDbLine
 10
726.5050108033417
 20
16.00000037252903
 30
0.0
 11
725.0000108033418
 21
16.00000037252903
 31
0.0
  0
LINE
  5
B4
330
70
100
AcDbEntity
  8
RC Hull Skeleton vFinale v2_Sketch1
100
AcDbLine
 10
725.0000108033418
 20
-50.00000124294423
 30
0.0
 11
664.0000108033419
 21
-50.00000124294423
 31
0.0
  0
ARC
  5
B5
330
70
100
AcDbEntity
  8
RC Hull Skeleton vFinale v2_Sketch1
100
AcDbCircle
 10
712.0000108061406
 20
-84.37509917522744
 30
0.0
 40
5.999999999999854
100
AcDbArc
 50
242.02510414561
 51
0.0000000000593025
  0
LINE
  5
B6
330
70
100
AcDbEntity
  8
RC Hull Skeleton vFinale v2_Sketch1
100
AcDbLine
 10
712.0000108061232
 20
-56.99999997634556
 30
0.0
 11
671.7567684877721
 21
-56.99999997634556
 31
0.0
  0
LINE
  5
B7
330
70
100
AcDbEntity
  8
RC Hull Skeleton vFinale v2_Sketch1
100
AcDbLine
 10
725.0000108033418
 20
-78.70163109338941
 30
0.0
 11
723.4500108033419
 21
-78.70163109338941
 31
0.0
  0
LINE
  5
B8
330
70
100
AcDbEntity
  8
RC Hull Skeleton vFinale v2_Sketch1
100
AcDbLine
 10
789.0000108013009
 20
-53.00000000000146
 30
0.0
 11
786.0000108033418
 21
-53.0
 31
0.0
  0
LINE
  5
B9
330
70
100
AcDbEntity
  8
RC Hull Skeleton vFinale v2_Sketch1
100
AcDbLine
 10
789.0000108013009
 20
-70.60000000000147
 30
0.0
 11
786.0000108013009
 21
-70.60000000000141
 31
0.0
  0
LINE
  5
BA
330
70
100
AcDbEntity
  8
RC Hull Skeleton vFinale v2_Sketch1
100
AcDbLine
 10
726.5500108033418
 20
-78.70163109338901
 30
0.0
 11
726.5500108033418
 21
-104.9272032116847
 31
0.0
  0
LINE
  5
BB
330
70
100
AcDbEntity
  8
RC Hull Skeleton vFinale v2_Sketch1
100
AcDbLine
 10
725.0000108033418
 20
-50.00000124294423
 30
0.0
 11
786.0000108033418
 21
-50.00000124294423
 31
0.0
  0
LINE
  5
BC
330
70
100
AcDbEntity
  8
RC Hull Skeleton vFinale v2_Sketch1
100
AcDbLine
 10
661.0000108053827
 20
-53.00000000000139
 30
0.0
 11
664.0000108033419
 21
-53.0
 31
0.0
  0
ARC
  5
BD
330
70
100
AcDbEntity
  8
RC Hull Skeleton vFinale v2_Sketch1
100
AcDbCircle
 10
726.7000108033419
 20
-104.9272032116847
 30
0.0
 40
0.1500000000000057
100
AcDbArc
 50
180.0
 51
297.9748958544549
  0
LINE
  5
BE
330
70
100
AcDbEntity
  8
RC Hull Skeleton vFinale v2_Sketch1
100
AcDbLine
 10
781.0577610444103
 20
-68.29891921872905
 30
0.0
 11
740.8145187260418
 21
-89.67401841761116
 31
0.0
  0
ARC
  5
BF
330
70
100
AcDbEntity
  8
RC Hull Skeleton vFinale v2_Sketch1
100
AcDbCircle
 10
738.0000108005431
 20
-84.37509917522737
 30
0.0
 40
5.999999999999943
100
AcDbArc
 50
179.9999999999409
 51
297.9748958543885
  0
ARC
  5
C0
330
70
100
AcDbEntity
  8
RC Hull Skeleton vFinale v2_Sketch1
100
AcDbCircle
 10
708.0000108033415
 20
-16.3627826157341
 30
0.0
 40
10.00000000000023
100
AcDbArc
 50
241.3895407069321
 51
359.9999999999988
  0
LINE
  5
C1
330
70
100
AcDbEntity
  8
RC Hull Skeleton vFinale v2_Sketch1
100
AcDbLine
 10
802.0000119954348
 20
-2.99999962747097
 30
0.0
 11
727.2894368658253
 21
-43.75122179454047
 31
0.0
  0
LINE
  5
C2
330
70
100
AcDbEntity
  8
RC Hull Skeleton vFinale v2_Sketch1
100
AcDbLine
 10
725.0000108033418
 20
-78.70163109338941
 30
0.0
 11
726.5500108033418
 21
-78.70163109338901
 31
0.0
  0
LINE
  5
C3
330
70
100
AcDbEntity
  8
RC Hull Skeleton vFinale v2_Sketch1
100
AcDbLine
 10
732.0000108005432
 20
-84.37509917522119
 30
0.0
 11
732.0000108005606
 21
-68.00000101327893
 31
0.0
  0
LINE
  5
C4
330
70
100
AcDbEntity
  8
RC Hull Skeleton vFinale v2_Sketch1
100
AcDbLine
 10
732.0000108005605
 20
-68.00000101327893
 30
0.0
 11
732.0000108005605
 21
-62.99999997634555
 31
0.0
  0
LINE
  5
C5
330
70
100
AcDbEntity
  8
RC Hull Skeleton vFinale v2_Sketch1
100
AcDbLine
 10
723.4500108033419
 20
-78.70163109338941
 30
0.0
 11
723.4500108033419
 21
-104.9272032116848
 31
0.0
  0
ARC
  5
C6
330
70
100
AcDbEntity
  8
RC Hull Skeleton vFinale v2_Sketch1
100
AcDbCircle
 10
738.0000108005605
 20
-62.99999997634556
 30
0.0
 40
6.000000000000014
100
AcDbArc
 50
90.0
 51
180.0
  0
LINE
  5
C7
330
70
100
AcDbEntity
  8
RC Hull Skeleton vFinale v2_Sketch1
100
AcDbLine
 10
786.0000108013009
 20
-70.60000000000143
 30
0.0
 11
786.0000108013009
 21
-73.59999998719205
 31
0.0
  0
LINE
  5
C8
330
70
100
AcDbEntity
  8
RC Hull Skeleton vFinale v2_Sketch1
100
AcDbLine
 10
794.8964434990123
 20
1.098940188251187
 30
0.0
 11
746.7885320530122
 21
-25.14173837604321
 31
0.0
  0
ARC
  5
C9
330
70
100
AcDbEntity
  8
RC Hull Skeleton vFinale v2_Sketch1
100
AcDbCircle
 10
708.0000108033419
 20
8.000000372529127
 30
0.0
 40
9.999999999999857
100
AcDbArc
 50
359.9999999999994
 51
90.00000000000063
  0
ARC
  5
CA
330
70
100
AcDbEntity
  8
RC Hull Skeleton vFinale v2_Sketch1
100
AcDbCircle
 10
727.0500108033448
 20
-43.3122740065219
 30
0.0
 40
0.4999999999999716
100
AcDbArc
 50
180.0
 51
298.6104592925993
  0
LINE
  5
CB
330
70
100
AcDbEntity
  8
RC Hull Skeleton vFinale v2_Sketch1
100
AcDbLine
 10
726.5050108033417
 20
25.00000037252903
 30
0.0
 11
726.5050108033417
 21
16.00000037252903
 31
0.0
  0
LINE
  5
CC
330
70
100
AcDbEntity
  8
RC Hull Skeleton vFinale v2_Sketch1
100
AcDbLine
 10
664.0000108033419
 20
-53.0
 30
0.0
 11
664.0000108033419
 21
-50.00000124294423
 31
0.0
  0
ARC
  5
CD
330
70
100
AcDbEntity
  8
RC Hull Skeleton vFinale v2_Sketch1
100
AcDbCircle
 10
712.0000108061232
 20
-62.99999997634556
 30
0.0
 40
5.999999999999943
100
AcDbArc
 50
0.0
 51
90.0
  0
LINE
  5
CE
330
70
100
AcDbEntity
  8
RC Hull Skeleton vFinale v2_Sketch1
100
AcDbLine
 10
655.1035781076714
 20
1.098940188251187
 30
0.0
 11
703.2114895536714
 21
-25.14173837604321
 31
0.0
  0
ARC
  5
CF
330
70
100
AcDbEntity
  8
RC Hull Skeleton vFinale v2_Sketch1
100
AcDbCircle
 10
722.9500108033419
 20
-43.31227400652508
 30
0.0
 40
0.4999999999999678
100
AcDbArc
 50
241.3895407069254
 51
0.0000000000056996
  0
LINE
  5
D0
330
70
100
AcDbEntity
  8
RC Hull Skeleton vFinale v2_Sketch1
100
AcDbLine
 10
718.0000108061404
 20
-84.37509917522122
 30
0.0
 11
718.000010806123
 21
-68.00000101327897
 31
0.0
  0
ARC
  5
D1
330
70
100
AcDbEntity
  8
RC Hull Skeleton vFinale v2_Sketch1
100
AcDbCircle
 10
671.7567684877722
 20
-62.99999997634557
 30
0.0
 40
6.000000000000014
100
AcDbArc
 50
90.0
 51
242.0251041456095
  0
ARC
  5
D2
330
70
100
AcDbEntity
  8
RC Hull Skeleton vFinale v2_Sketch1
100
AcDbCircle
 10
723.3000108033418
 20
-104.9272032116848
 30
0.0
 40
0.1500000000000942
100
AcDbArc
 50
242.0251041455221
 51
0.0000000000162844
  0
LINE
  5
D3
330
70
100
AcDbEntity
  8
RC Hull Skeleton vFinale v2_Sketch1
100
AcDbLine
 10
786.0000108033418
 20
-53.0
 30
0.0
 11
786.0000108033418
 21
-50.00000124294423
 31
0.0
  0
LINE
  5
D4
330
70
100
AcDbEntity
  8
RC Hull Skeleton vFinale v2_Sketch1
100
AcDbLine
 10
732.0000108033418
 20
8.000000372529031
 30
0.0
 11
732.0000108033414
 21
-16.36278261573304
 31
0.0
  0
LINE
  5
D5
330
70
100
AcDbEntity
  8
RC Hull Skeleton vFinale v2_Sketch1
100
AcDbLine
 10
789.0000108013009
 20
-53.00000000000146
 30
0.0
 11
789.0000108013009
 21
-70.60000000000147
 31
0.0
  0
ARC
  5
D6
330
70
100
AcDbEntity
  8
RC Hull Skeleton vFinale v2_Sketch1
100
AcDbCircle
 10
659.4132472323746
 20
9.000000372529028
 30
0.0
 40
9.0
100
AcDbArc
 50
90.0
 51
241.3895407069301
  0
LINE
  5
D7
330
70
100
AcDbEntity
  8
RC Hull Skeleton vFinale v2_Sketch1
100
AcDbLine
 10
726.5500108033449
 20
-43.3122740065219
 30
0.0
 11
726.5500108033419
 21
-38.01758049373268
 31
0.0
  0
LINE
  5
D8
330
70
100
AcDbEntity
  8
RC Hull Skeleton vFinale v2_Sketch1
100
AcDbLine
 10
802.0000119954348
 20
22.00000037252903
 30
0.0
 11
805.0000119954347
 21
22.00000037252903
 31
0.0
  0
LINE
  5
D9
330
70
100
AcDbEntity
  8
RC Hull Skeleton vFinale v2_Sketch1
100
AcDbLine
 10
790.5867743743091
 20
18.00000037252903
 30
0.0
 11
742.0000108033418
 21
18.00000037252903
 31
0.0
  0
LINE
  5
DA
330
70
100
AcDbEntity
  8
RC Hull Skeleton vFinale v2_Sketch1
100
AcDbLine
 10
802.0000119954348
 20
25.00000037252903
 30
0.0
 11
726.5050108033417
 21
25.00000037252903
 31
0.0
  0
LINE
  5
DB
330
70
100
AcDbEntity
  8
RC Hull Skeleton vFinale v2_Sketch1
100
AcDbLine
 10
661.0000108053827
 20
-70.60000000000139
 30
0.0
 11
664.0000108053827
 21
-70.60000000000139
 31
0.0
  0
LINE
  5
DC
330
70
100
AcDbEntity
  8
RC Hull Skeleton vFinale v2_Sketch1
100
AcDbLine
 10
718.0000108033418
 20
8.000000372529031
 30
0.0
 11
718.0000108033418
 21
-16.36278261573432
 31
0.0
  0
LINE
  5
DD
330
70
100
AcDbEntity
  8
RC Hull Skeleton vFinale v2_Sketch1
100
AcDbLine
 10
726.5500108033418
 20
-38.01758049373268
 30
0.0
 11
725.0000108033418
 21
-38.0175804937326
 31
0.0
  0
LINE
  5
DE
330
70
100
AcDbEntity
  8
RC Hull Skeleton vFinale v2_Sketch1
100
AcDbLine
 10
648.0000096112489
 20
0.0000003725290298
 30
0.0
 11
648.0000096112489
 21
-2.99999962747097
 31
0.0
  0
LINE
  5
DF
330
70
100
AcDbEntity
  8
RC Hull Skeleton vFinale v2_Sketch1
100
AcDbLine
 10
786.0000108013009
 20
-73.59999998719205
 30
0.0
 11
726.7703735014795
 21
-105.0596761927443
 31
0.0
  0
LINE
  5
E0
330
70
100
AcDbEntity
  8
RC Hull Skeleton vFinale v2_Sketch1
100
AcDbLine
 10
723.4950108033419
 20
16.00000037252903
 30
0.0
 11
725.0000108033418
 21
16.00000037252903
 31
0.0
  0
LINE
  5
E1
330
70
100
AcDbEntity
  8
RC Hull Skeleton vFinale v2_Sketch1
100
AcDbLine
 10
659.4132472323746
 20
18.00000037252903
 30
0.0
 11
708.0000108033418
 21
18.00000037252903
 31
0.0
  0
LINE
  5
E2
330
70
100
AcDbEntity
  8
RC Hull Skeleton vFinale v2_Sketch1
100
AcDbLine
 10
723.4500108033419
 20
-38.01758049373272
 30
0.0
 11
725.0000108033418
 21
-38.01758049373259
 31
0.0
  0
LINE
  5
E3
330
70
100
AcDbEntity
  8
RC Hull Skeleton vFinale v2_Sketch1
100
AcDbLine
 10
661.0000108053827
 20
-53.00000000000139
 30
0.0
 11
661.0000108053827
 21
-70.60000000000139
 31
0.0
  0
LINE
  5
E4
330
70
100
AcDbEntity
  8
RC Hull Skeleton vFinale v2_Sketch1
100
AcDbLine
 10
648.0000096112489
 20
-2.99999962747097
 30
0.0
 11
722.7105847408584
 21
-43.75122179454047
 31
0.0
  0
LINE
  5
E5
330
70
100
AcDbEntity
  8
RC Hull Skeleton vFinale v2_Sketch1
100
AcDbLine
 10
723.4500108033419
 20
-43.31227400652504
 30
0.0
 11
723.4500108033419
 21
-38.01758049373273
 31
0.0
  0
LINE
  5
E6
330
70
100
AcDbEntity
  8
RC Hull Skeleton vFinale v2_Sketch1
100
AcDbLine
 10
725.0000108033418
 20
16.00000037252903
 30
0.0
 11
725.0000108033418
 21
25.00000037252903
 31
0.0
  0
ARC
  5
E7
330
70
100
AcDbEntity
  8
RC Hull Skeleton vFinale v2_Sketch1
100
AcDbCircle
 10
742.0000108033417
 20
-16.36278261573304
 30
0.0
 40
10.00000000000028
100
AcDbArc
 50
180.0
 51
298.610459293067
  0
LINE
  5
E8
330
70
100
AcDbEntity
  8
RC Hull Skeleton vFinale v2_Sketch1
100
AcDbLine
 10
718.0000108061232
 20
-68.00000101327897
 30
0.0
 11
718.0000108061232
 21
-62.99999997634555
 31
0.0
  0
LINE
  5
E9
330
70
100
AcDbEntity
  8
RC Hull Skeleton vFinale v2_Sketch1
100
AcDbLine
 10
723.4950108033419
 20
25.00000037252903
 30
0.0
 11
723.4950108033419
 21
16.00000037252903
 31
0.0
  0
LINE
  5
EA
330
70
100
AcDbEntity
  8
RC Hull Skeleton vFinale v2_Sketch1
100
AcDbLine
 10
802.0000119954348
 20
0.0000003725290298
 30
0.0
 11
802.0000119954348
 21
-2.99999962747097
 31
0.0
  0
LINE
  5
EB
330
70
100
AcDbEntity
  8
RC Hull Skeleton vFinale v2_Sketch1
100
AcDbLine
 10
828.0
 20
16.0
 30
0.0
 11
828.0
 21
-39.50000000000001
 31
0.0
  0
LINE
  5
EC
330
70
100
AcDbEntity
  8
RC Hull Skeleton vFinale v2_Sketch1
100
AcDbLine
 10
825.0
 20
-39.50000000000001
 30
0.0
 11
825.0
 21
-45.00000067055225
 31
0.0
  0
LINE
  5
ED
330
70
100
AcDbEntity
  8
RC Hull Skeleton vFinale v2_Sketch1
100
AcDbLine
 10
835.0
 20
2.835385089558146
 30
0.0
 11
835.0
 21
-28.05092887561173
 31
0.0
  0
LINE
  5
EE
330
70
100
AcDbEntity
  8
RC Hull Skeleton vFinale v2_Sketch1
100
AcDbLine
 10
960.0
 20
0.0657337027707605
 30
0.0
 11
960.0
 21
2.94653618659737
 31
0.0
  0
ARC
  5
EF
330
70
100
AcDbEntity
  8
RC Hull Skeleton vFinale v2_Sketch1
100
AcDbCircle
 10
828.0000000000038
 20
-1467.179999999959
 30
0.0
 40
1485.179999999959
100
AcDbArc
 50
80.71847857543968
 51
83.81244272053827
  0
ARC
  5
F0
330
70
100
AcDbEntity
  8
RC Hull Skeleton vFinale v2_Sketch1
100
AcDbCircle
 10
778.2432531189115
 20
-62.99999997634518
 30
0.0
 40
6.000000000000125
100
AcDbArc
 50
297.9748958543899
 51
90.0
  0
LINE
  5
F1
330
70
100
AcDbEntity
  8
RC Hull Skeleton vFinale v2_Sketch1
100
AcDbLine
 10
970.0
 20
-10.21818959291655
 30
0.0
 11
967.0
 21
-10.21818959291655
 31
0.0
  0
ARC
  5
F2
330
70
100
AcDbEntity
  8
RC Hull Skeleton vFinale v2_Sketch1
100
AcDbCircle
 10
828.0000000000063
 20
-1467.179999999959
 30
0.0
 40
1492.179999999958
100
AcDbArc
 50
84.6550171812311
 51
90.00000000000005
  0
LINE
  5
F3
330
70
100
AcDbEntity
  8
RC Hull Skeleton vFinale v2_Sketch1
100
AcDbLine
 10
645.0
 20
237.2902504159
 30
0.0
 11
645.0
 21
325.0
 31
0.0
  0
ARC
  5
F4
330
70
100
AcDbEntity
  8
RC Hull Skeleton vFinale v2_Sketch1
100
AcDbCircle
 10
838.85830527799
 20
733.9120214308162
 30
0.0
 40
771.9877020357577
100
AcDbArc
 50
270.4618145357637
 51
278.3869438448966
  0
LINE
  5
F5
330
70
100
AcDbEntity
  8
RC Hull Skeleton vFinale v2_Sketch1
100
AcDbLine
 10
1250.0
 20
382.0
 30
0.0
 11
650.0
 21
382.0
 31
0.0
  0
ARC
  5
F6
330
70
100
AcDbEntity
  8
RC Hull Skeleton vFinale v2_Sketch1
100
AcDbCircle
 10
1050.000000000001
 20
-500.0909090908931
 30
0.0
 40
920.0909090908918
100
AcDbArc
 50
77.44540302080476
 51
90.00000000000012
  0
LINE
  5
F7
330
70
100
AcDbEntity
  8
RC Hull Skeleton vFinale v2_Sketch1
100
AcDbLine
 10
645.0
 20
-120.0
 30
0.0
 11
870.0
 21
-120.0
 31
0.0
  0
LINE
  5
F8
330
70
100
AcDbEntity
  8
RC Hull Skeleton vFinale v2_Sketch1
100
AcDbLine
 10
645.0
 20
-280.0
 30
0.0
 11
645.0
 21
-120.0
 31
0.0
  0
ARC
  5
F9
330
70
100
AcDbEntity
  8
RC Hull Skeleton vFinale v2_Sketch1
100
AcDbCircle
 10
874.9999999999989
 20
-768.7870439224418
 30
0.0
 40
1093.787043922442
100
AcDbArc
 50
70.22823266433556
 51
89.99999999999992
  0
LINE
  5
FA
330
70
100
AcDbEntity
  8
RC Hull Skeleton vFinale v2_Sketch1
100
AcDbLine
 10
645.0
 20
-139.0
 30
0.0
 11
645.0
 21
-200.0
 31
0.0
  0
LINE
  5
FB
330
70
100
AcDbEntity
  8
RC Hull Skeleton vFinale v2_Sketch1
100
AcDbLine
 10
977.0
 20
0.0657337027707605
 30
0.0
 11
977.0000000000035
 21
-13.5365027757863
 31
0.0
  0
ARC
  5
FC
330
70
100
AcDbEntity
  8
RC Hull Skeleton vFinale v2_Sketch1
100
AcDbCircle
 10
844.9999999999999
 20
-28.05092887561181
 30
0.0
 40
9.999999999999857
100
AcDbArc
 50
179.9999999999996
 51
270.4618145357635
  0
LINE
  5
FD
330
70
100
AcDbEntity
  8
RC Hull Skeleton vFinale v2_Sketch1
100
AcDbLine
 10
901.0
 20
237.2902504159
 30
0.0
 11
645.0
 21
237.2902504159
 31
0.0
  0
LINE
  5
FE
330
70
100
AcDbEntity
  8
RC Hull Skeleton vFinale v2_Sketch1
100
AcDbLine
 10
960.0
 20
0.0657337027707605
 30
0.0
 11
960.0
 21
-19.92667600256311
 31
0.0
  0
LINE
  5
FF
330
70
100
AcDbEntity
  8
RC Hull Skeleton vFinale v2_Sketch1
100
AcDbLine
 10
1250.0
 20
398.0
 30
0.0
 11
650.0
 21
398.0
 31
0.0
  0
LINE
  5
100
330
70
100
AcDbEntity
  8
RC Hull Skeleton vFinale v2_Sketch1
100
AcDbLine
 10
825.0
 20
25.0
 30
0.0
 11
825.0
 21
16.0
 31
0.0
  0
LINE
  5
101
330
70
100
AcDbEntity
  8
RC Hull Skeleton vFinale v2_Sketch1
100
AcDbLine
 10
901.0
 20
212.7097495841
 30
0.0
 11
645.0
 21
212.7097495841
 31
0.0
  0
ARC
  5
102
330
70
100
AcDbEntity
  8
RC Hull Skeleton vFinale v2_Sketch1
100
AcDbCircle
 10
828.0000000000063
 20
-1467.179999999959
 30
0.0
 40
1492.179999999958
100
AcDbArc
 50
79.49719635629873
 51
84.53931102071626
  0
LINE
  5
103
330
70
100
AcDbEntity
  8
RC Hull Skeleton vFinale v2_Sketch1
100
AcDbLine
 10
635.0
 20
425.0
 30
0.0
 11
632.0
 21
425.0
 31
0.0
  0
LINE
  5
104
330
70
100
AcDbEntity
  8
RC Hull Skeleton vFinale v2_Sketch1
100
AcDbLine
 10
650.0
 20
360.0
 30
0.0
 11
1050.0
 21
360.0
 31
0.0
  0
ARC
  5
105
330
70
100
AcDbEntity
  8
RC Hull Skeleton vFinale v2_Sketch1
100
AcDbCircle
 10
870.0000000000006
 20
-1038.906249999998
 30
0.0
 40
918.9062500000002
100
AcDbArc
 50
65.91484971423004
 51
90.00000000000003
  0
ARC
  5
106
330
70
100
AcDbEntity
  8
RC Hull Skeleton vFinale v2_Sketch1
100
AcDbCircle
 10
870.0000000000006
 20
638.9062499999977
 30
0.0
 40
918.9062499999977
100
AcDbArc
 50
269.9999999999999
 51
294.08515028577
  0
ARC
  5
107
330
70
100
AcDbEntity
  8
RC Hull Skeleton vFinale v2_Sketch1
100
AcDbCircle
 10
1050.000000000001
 20
1280.090909090893
 30
0.0
 40
920.0909090908931
100
AcDbArc
 50
269.9999999999999
 51
282.5545969791952
  0
LINE
  5
108
330
70
100
AcDbEntity
  8
RC Hull Skeleton vFinale v2_Sketch1
100
AcDbLine
 10
828.0
 20
-45.0
 30
0.0
 11
825.0
 21
-45.00000067055225
 31
0.0
  0
LINE
  5
109
330
70
100
AcDbEntity
  8
RC Hull Skeleton vFinale v2_Sketch1
100
AcDbLine
 10
870.0
 20
-280.0
 30
0.0
 11
645.0
 21
-280.0
 31
0.0
  0
ARC
  5
10A
330
70
100
AcDbEntity
  8
RC Hull Skeleton vFinale v2_Sketch1
100
AcDbCircle
 10
1067.376772624823
 20
-2.431204770003978
 30
0.0
 40
1.000000000000129
100
AcDbArc
 50
287.2413285038259
 51
80.7184785754443
  0
ARC
  5
10B
330
70
100
AcDbEntity
  8
RC Hull Skeleton vFinale v2_Sketch1
100
AcDbCircle
 10
838.8583052779916
 20
733.9120214308185
 30
0.0
 40
778.9877020357575
100
AcDbArc
 50
269.2013285812129
 51
289.5866533366893
  0
ARC
  5
10C
330
70
100
AcDbEntity
  8
RC Hull Skeleton vFinale v2_Sketch1
100
AcDbCircle
 10
838.85830527799
 20
733.9120214308162
 30
0.0
 40
771.9877020357578
100
AcDbArc
 50
281.2105404875046
 51
287.2413285038232
  0
ARC
  5
10D
330
70
100
AcDbEntity
  8
RC Hull Skeleton vFinale v2_Sketch1
100
AcDbCircle
 10
950.0
 20
-19.92667600256318
 30
0.0
 40
10.00000000000002
100
AcDbArc
 50
278.3869438448945
 51
0.0000000000004071
  0
LINE
  5
10E
330
70
100
AcDbEntity
  8
RC Hull Skeleton vFinale v2_Sketch1
100
AcDbLine
 10
632.0
 20
425.0
 30
0.0
 11
632.0
 21
-195.0
 31
0.0
  0
ARC
  5
10F
330
70
100
AcDbEntity
  8
RC Hull Skeleton vFinale v2_Sketch1
100
AcDbCircle
 10
901.0000000000081
 20
2796.137216295059
 30
0.0
 40
2558.846965879159
100
AcDbArc
 50
269.9999999999998
 51
277.7259817740297
  0
LINE
  5
110
330
70
100
AcDbEntity
  8
RC Hull Skeleton vFinale v2_Sketch1
100
AcDbLine
 10
970.0
 20
18.22807605183041
 30
0.0
 11
970.0
 21
-10.21818959291656
 31
0.0
  0
LINE
  5
111
330
70
100
AcDbEntity
  8
RC Hull Skeleton vFinale v2_Sketch1
100
AcDbLine
 10
828.0
 20
-39.50000000000001
 30
0.0
 11
825.0
 21
-39.50000000000001
 31
0.0
  0
LINE
  5
112
330
70
100
AcDbEntity
  8
RC Hull Skeleton vFinale v2_Sketch1
100
AcDbLine
 10
828.0
 20
16.0
 30
0.0
 11
825.0
 21
16.0
 31
0.0
  0
ARC
  5
113
330
70
100
AcDbEntity
  8
RC Hull Skeleton vFinale v2_Sketch1
100
AcDbCircle
 10
828.0000000000038
 20
-1467.179999999959
 30
0.0
 40
1485.179999999959
100
AcDbArc
 50
85.25611929603483
 51
89.1425851274019
  0
LINE
  5
114
330
70
100
AcDbEntity
  8
RC Hull Skeleton vFinale v2_Sketch1
100
AcDbLine
 10
977.0
 20
0.0657337027707605
 30
0.0
 11
977.0
 21
-0.593816920396364
 31
0.0
  0
ARC
  5
115
330
70
100
AcDbEntity
  8
RC Hull Skeleton vFinale v2_Sketch1
100
AcDbCircle
 10
850.0000000000001
 20
2.835385089558119
 30
0.0
 40
15.00000000000014
100
AcDbArc
 50
89.14258512740239
 51
179.9999999999999
  0
LINE
  5
116
330
70
100
AcDbEntity
  8
RC Hull Skeleton vFinale v2_Sketch1
100
AcDbLine
 10
650.0
 20
420.0
 30
0.0
 11
1050.0
 21
420.0
 31
0.0
  0
ARC
  5
117
330
70
100
AcDbEntity
  8
RC Hull Skeleton vFinale v2_Sketch1
100
AcDbCircle
 10
987.0000000000034
 20
-13.5365027757838
 30
0.0
 40
10.0
100
AcDbArc
 50
180.0000000000144
 51
281.2105404875023
  0
LINE
  5
118
330
70
100
AcDbEntity
  8
RC Hull Skeleton vFinale v2_Sketch1
100
AcDbLine
 10
650.0
 20
398.0
 30
0.0
 11
650.0
 21
420.0
 31
0.0
  0
LINE
  5
119
330
70
100
AcDbEntity
  8
RC Hull Skeleton vFinale v2_Sketch1
100
AcDbLine
 10
645.0
 20
-150.0
 30
0.0
 11
645.0
 21
-120.0
 31
0.0
  0
LINE
  5
11A
330
70
100
AcDbEntity
  8
RC Hull Skeleton vFinale v2_Sketch1
100
AcDbLine
 10
680.0
 20
-150.0
 30
0.0
 11
870.0
 21
-150.0
 31
0.0
  0
LINE
  5
11B
330
70
100
AcDbEntity
  8
RC Hull Skeleton vFinale v2_Sketch1
100
AcDbLine
 10
645.0
 20
212.7097495841
 30
0.0
 11
645.0
 21
125.0
 31
0.0
  0
LINE
  5
11C
330
70
100
AcDbEntity
  8
RC Hull Skeleton vFinale v2_Sketch1
100
AcDbLine
 10
738.0000108005605
 20
-56.99999997634555
 30
0.0
 11
778.2432531189116
 21
-56.9999999763452
 31
0.0
  0
LINE
  5
11D
330
70
100
AcDbEntity
  8
RC Hull Skeleton vFinale v2_Sketch1
100
AcDbLine
 10
967.0
 20
18.51180936020524
 30
0.0
 11
967.0
 21
-10.21818959291655
 31
0.0
  0
LINE
  5
11E
330
70
100
AcDbEntity
  8
RC Hull Skeleton vFinale v2_Sketch1
100
AcDbLine
 10
632.0
 20
-195.0
 30
0.0
 11
635.0
 21
-195.0
 31
0.0
  0
ARC
  5
11F
330
70
100
AcDbEntity
  8
RC Hull Skeleton vFinale v2_Sketch1
100
AcDbCircle
 10
901.0000000000081
 20
-2346.137216295059
 30
0.0
 40
2558.846965879225
100
AcDbArc
 50
82.27401822597025
 51
89.99999999999991
  0
LINE
  5
120
330
70
100
AcDbEntity
  8
RC Hull Skeleton vFinale v2_Sketch1
100
AcDbLine
 10
635.0
 20
-195.0
 30
0.0
 11
635.0
 21
425.0
 31
0.0
  0
LINE
  5
121
330
70
100
AcDbEntity
  8
RC Hull Skeleton vFinale v2_Sketch1
100
AcDbLine
 10
645.0
 20
-120.0
 30
0.0
 11
665.0
 21
-120.0
 31
0.0
  0
LINE
  5
122
330
70
100
AcDbEntity
  8
RC Hull Skeleton vFinale v2_Sketch1
100
AcDbLine
 10
885.0000000000001
 20
-165.0
 30
0.0
 11
885.0
 21
-200.0
 31
0.0
  0
LINE
  5
123
330
70
100
AcDbEntity
  8
RC Hull Skeleton vFinale v2_Sketch1
100
AcDbLine
 10
645.0
 20
125.0
 30
0.0
 11
875.0
 21
125.0
 31
0.0
  0
LINE
  5
124
330
70
100
AcDbEntity
  8
RC Hull Skeleton vFinale v2_Sketch1
100
AcDbLine
 10
645.0
 20
325.0
 30
0.0
 11
875.0
 21
325.0
 31
0.0
  0
LINE
  5
125
330
70
100
AcDbEntity
  8
RC Hull Skeleton vFinale v2_Sketch1
100
AcDbLine
 10
650.0
 20
382.0
 30
0.0
 11
650.0
 21
360.0
 31
0.0
  0
LINE
  5
126
330
70
100
AcDbEntity
  8
RC Hull Skeleton vFinale v2_Sketch1
100
AcDbLine
 10
645.0
 20
-120.0
 30
0.0
 11
907.0
 21
-120.0
 31
0.0
  0
LINE
  5
127
330
70
100
AcDbEntity
  8
RC Hull Skeleton vFinale v2_Sketch1
100
AcDbLine
 10
828.0
 20
25.0
 30
0.0
 11
825.0
 21
25.0
 31
0.0
  0
ARC
  5
128
330
70
100
AcDbEntity
  8
RC Hull Skeleton vFinale v2_Sketch1
100
AcDbCircle
 10
987.0000000000006
 20
-0.5938169203967004
 30
0.0
 40
10.00000000000056
100
AcDbArc
 50
83.81244272054194
 51
179.999999999998
  0
ARC
  5
129
330
70
100
AcDbEntity
  8
RC Hull Skeleton vFinale v2_Sketch1
100
AcDbCircle
 10
950.0000000000001
 20
2.946536186597528
 30
0.0
 40
9.999999999999715
100
AcDbArc
 50
359.9999999999991
 51
85.25611929603719
  0
ARC
  5
12A
330
70
100
AcDbEntity
  8
RC Hull Skeleton vFinale v2_Sketch1
100
AcDbCircle
 10
874.9999999999989
 20
1218.787043922442
 30
0.0
 40
1093.787043922442
100
AcDbArc
 50
270.0
 51
289.7717673356644
  0
LINE
  5
12B
330
70
100
AcDbEntity
  8
RC Hull Skeleton vFinale v2_Sketch1
100
AcDbLine
 10
680.0
 20
-250.0
 30
0.0
 11
870.0
 21
-250.0
 31
0.0
  0
ARC
  5
12C
330
70
100
AcDbEntity
  8
RC Hull Skeleton vFinale v2_Sketch1
100
AcDbCircle
 10
680.0
 20
-165.0000000000001
 30
0.0
 40
15.0000000000001
100
AcDbArc
 50
90.0
 51
179.9999999999996
  0
LINE
  5
12D
330
70
100
AcDbEntity
  8
RC Hull Skeleton vFinale v2_Sketch1
100
AcDbLine
 10
665.0
 20
-200.0
 30
0.0
 11
664.9999999999998
 21
-165.0
 31
0.0
  0
ARC
  5
12E
330
70
100
AcDbEntity
  8
RC Hull Skeleton vFinale v2_Sketch1
100
AcDbCircle
 10
870.0
 20
-165.0000000000001
 30
0.0
 40
15.00000000000014
100
AcDbArc
 50
0.0000000000004343
 51
90.0
  0
ARC
  5
12F
330
70
100
AcDbEntity
  8
RC Hull Skeleton vFinale v2_Sketch1
100
AcDbCircle
 10
870.0
 20
-234.9999999999999
 30
0.0
 40
15.0000000000001
100
AcDbArc
 50
270.0
 51
359.9999999999996
  0
LINE
  5
130
330
70
100
AcDbEntity
  8
RC Hull Skeleton vFinale v2_Sketch1
100
AcDbLine
 10
885.0000000000001
 20
-235.0
 30
0.0
 11
885.0
 21
-200.0
 31
0.0
  0
LINE
  5
131
330
70
100
AcDbEntity
  8
RC Hull Skeleton vFinale v2_Sketch1
100
AcDbLine
 10
645.0
 20
-200.0
 30
0.0
 11
1245.0
 21
-200.0
 31
0.0
  0
ARC
  5
132
330
70
100
AcDbEntity
  8
RC Hull Skeleton vFinale v2_Sketch1
100
AcDbCircle
 10
680.0
 20
-234.9999999999999
 30
0.0
 40
15.00000000000014
100
AcDbArc
 50
180.0000000000004
 51
270.0
  0
LINE
  5
133
330
70
100
AcDbEntity
  8
RC Hull Skeleton vFinale v2_Sketch1
100
AcDbLine
 10
665.0
 20
-200.0
 30
0.0
 11
664.9999999999998
 21
-235.0
 31
0.0
  0
ENDSEC
  0
SECTION
  2
OBJECTS
  0
DICTIONARY
  5
C
330
0
100
AcDbDictionary
281
     1
  3
ACAD_COLOR
350
63
  3
ACAD_DETAILVIEWSTYLE
350
6A
  3
ACAD_GROUP
350
D
  3
ACAD_LAYOUT
350
62
  3
ACAD_MATERIAL
350
10
  3
ACAD_MLEADERSTYLE
350
66
  3
ACAD_MLINESTYLE
350
5F
  3
ACAD_PLOTSETTINGS
350
61
  3
ACAD_PLOTSTYLENAME
350
E
  3
ACAD_SCALELIST
350
42
  3
ACAD_SECTIONVIEWSTYLE
350
68
  3
ACAD_TABLESTYLE
350
64
  3
ACAD_VISUALSTYLE
350
29
  3
ACDB_RECOMPOSE_DATA
350
13C
  3
AcDbVariableDictionary
350
134
  0
DICTIONARY
  5
63
102
{ACAD_REACTORS
330
C
102
}
330
C
100
AcDbDictionary
281
     1
  0
DICTIONARY
  5
6A
102
{ACAD_REACTORS
330
C
102
}
330
C
100
AcDbDictionary
281
     1
  3
Imperial24
350
6B
  0
DICTIONARY
  5
D
102
{ACAD_REACTORS
330
C
102
}
330
C
100
AcDbDictionary
281
     1
  0
DICTIONARY
  5
62
102
{ACAD_REACTORS
330
C
102
}
330
C
100
AcDbDictionary
281
     1
  3
Layout1
350
6F
  3
Layout2
350
77
  3
Model
350
73
  0
DICTIONARY
  5
10
102
{ACAD_REACTORS
330
C
102
}
330
C
100
AcDbDictionary
281
     1
  3
ByBlock
350
19
  3
ByLayer
350
11
  3
Global
350
21
  0
DICTIONARY
  5
66
102
{ACAD_REACTORS
330
C
102
}
330
C
100
AcDbDictionary
281
     1
  3
Standard
350
67
  0
DICTIONARY
  5
5F
102
{ACAD_REACTORS
330
C
102
}
330
C
100
AcDbDictionary
281
     1
  3
Standard
350
60
  0
DICTIONARY
  5
61
102
{ACAD_REACTORS
330
C
102
}
330
C
100
AcDbDictionary
281
     1
  0
ACDBDICTIONARYWDFLT
  5
E
102
{ACAD_REACTORS
330
C
102
}
330
C
100
AcDbDictionary
281
     1
  3
Normal
350
F
100
AcDbDictionaryWithDefault
340
F
  0
DICTIONARY
  5
42
102
{ACAD_REACTORS
330
C
102
}
330
C
100
AcDbDictionary
281
     1
  3
A0
350
43
  3
A1
350
44
  3
A2
350
45
  3
A3
350
46
  3
A4
350
47
  3
A5
350
48
  3
A6
350
49
  3
A7
350
4A
  3
A8
350
4B
  3
A9
350
4C
  3
B0
350
4D
  3
B1
350
4E
  3
B2
350
4F
  3
B3
350
50
  3
B4
350
51
  3
B5
350
52
  3
B6
350
53
  0
DICTIONARY
  5
68
102
{ACAD_REACTORS
330
C
102
}
330
C
100
AcDbDictionary
281
     1
  3
Imperial24
350
69
  0
DICTIONARY
  5
64
102
{ACAD_REACTORS
330
C
102
}
330
C
100
AcDbDictionary
281
     1
  3
Standard
350
65
  0
DICTIONARY
  5
29
102
{ACAD_REACTORS
330
C
102
}
330
C
100
AcDbDictionary
281
     1
  3
2dWireframe
350
2F
  3
Basic
350
2E
  3
Brighten
350
35
  3
ColorChange
350
39
  3
Conceptual
350
32
  3
Dim
350
34
  3
EdgeColorOff
350
41
  3
Facepattern
350
38
  3
Flat
350
2A
  3
FlatWithEdges
350
2B
  3
Gouraud
350
2C
  3
GouraudWithEdges
350
2D
  3
Hidden
350
31
  3
JitterOff
350
3F
  3
Linepattern
350
37
  3
OverhangOff
350
40
  3
Realistic
350
33
  3
Shaded
350
3E
  3
Shaded with edges
350
3D
  3
Shades of Gray
350
3A
  3
Sketchy
350
3B
  3
Thicken
350
36
  3
Wireframe
350
30
  3
X-Ray
350
3C
  0
XRECORD
  5
13C
102
{ACAD_REACTORS
330
C
102
}
330
C
100
AcDbXrecord
280
     1
 90
        1
330
65
  0
DICTIONARY
  5
134
102
{ACAD_REACTORS
330
C
102
}
330
C
100
AcDbDictionary
281
     1
  3
CANNOSCALE
350
139
  3
CMLEADERSTYLE
350
136
  3
CTABLESTYLE
350
135
  3
CVIEWDETAILSTYLE
350
137
  3
CVIEWSECTIONSTYLE
350
138
  0
ACDBDETAILVIEWSTYLE
  5
6B
102
{ACAD_XDICTIONARY
360
13F
102
}
102
{ACAD_REACTORS
330
6A
102
}
330
6A
100
AcDbModelDocViewStyle
 70
     0
  3
Imperial24
290
     0
100
AcDbDetailViewStyle
 70
     0
 71
     0
 90
        3
 71
     1
340
55
 62
   256
 40
0.24
340
0
 62
   256
 40
0.24
300

 40
0.36
280
     3
 71
     2
340
5D
 90
       25
 62
   256
 71
     3
340
55
 62
   256
 40
0.24
 90
        1
 40
0.75
 90
        1
300
%<\AcVar ViewType \f "%tc1">% %<\AcVar ViewDetailId>%\PSCALE %<\AcVar ViewScale \f "%sn">%
 71
     4
340
5D
 90
       25
 62
   256
340
5D
 90
       25
 62
   256
280
     0
  0
LAYOUT
  5
6F
102
{ACAD_REACTORS
330
62
102
}
330
62
100
AcDbPlotSettings
  1

  2

  4

  6

 40
0.0
 41
0.0
 42
0.0
 43
0.0
 44
0.0
 45
0.0
 46
0.0
 47
0.0
 48
0.0
 49
0.0
140
0.0
141
0.0
142
1.0
143
1.0
 70
   688
 72
     0
 73
     0
 74
     5
  7

 75
    16
147
1.0
 76
     0
 77
     2
 78
   300
148
0.0
149
0.0
100
AcDbLayout
  1
Layout1
 70
     1
 71
     1
 10
0.0
 20
0.0
 11
12.0
 21
9.0
 12
0.0
 22
0.0
 32
0.0
 14
0.0
 24
0.0
 34
0.0
 15
0.0
 25
0.0
 35
0.0
146
0.0
 13
0.0
 23
0.0
 33
0.0
 16
1.0
 26
0.0
 36
0.0
 17
0.0
 27
1.0
 37
0.0
 76
     0
330
6C
  0
LAYOUT
  5
77
102
{ACAD_REACTORS
330
62
102
}
330
62
100
AcDbPlotSettings
  1

  2

  4

  6

 40
0.0
 41
0.0
 42
0.0
 43
0.0
 44
0.0
 45
0.0
 46
0.0
 47
0.0
 48
0.0
 49
0.0
140
0.0
141
0.0
142
1.0
143
1.0
 70
   688
 72
     0
 73
     0
 74
     5
  7

 75
    16
147
1.0
 76
     0
 77
     2
 78
   300
148
0.0
149
0.0
100
AcDbLayout
  1
Layout2
 70
     1
 71
     2
 10
0.0
 20
0.0
 11
12.0
 21
9.0
 12
0.0
 22
0.0
 32
0.0
 14
0.0
 24
0.0
 34
0.0
 15
0.0
 25
0.0
 35
0.0
146
0.0
 13
0.0
 23
0.0
 33
0.0
 16
1.0
 26
0.0
 36
0.0
 17
0.0
 27
1.0
 37
0.0
 76
     0
330
74
  0
LAYOUT
  5
73
102
{ACAD_REACTORS
330
62
102
}
330
62
100
AcDbPlotSettings
  1

  2

  4

  6

 40
0.0
 41
0.0
 42
0.0
 43
0.0
 44
0.0
 45
0.0
 46
0.0
 47
0.0
 48
0.0
 49
0.0
140
0.0
141
0.0
142
1.0
143
1.0
 70
  1712
 72
     0
 73
     0
 74
     0
  7

 75
     0
147
1.0
 76
     0
 77
     2
 78
   300
148
0.0
149
0.0
100
AcDbLayout
  1
Model
 70
     1
 71
     0
 10
0.0
 20
0.0
 11
12.0
 21
9.0
 12
0.0
 22
0.0
 32
0.0
 14
0.0
 24
0.0
 34
0.0
 15
0.0
 25
0.0
 35
0.0
146
0.0
 13
0.0
 23
0.0
 33
0.0
 16
1.0
 26
0.0
 36
0.0
 17
0.0
 27
1.0
 37
0.0
 76
     0
330
70
  0
MATERIAL
  5
19
102
{ACAD_XDICTIONARY
360
1A
102
}
102
{ACAD_REACTORS
330
10
102
}
330
10
100
AcDbMaterial
  1
ByBlock
 72
     0
 43
0.0208333333333333
 43
0.0
 43
0.0
 43
0.0
 43
0.0
 43
0.0208333333333333
 43
0.0
 43
0.0
 43
0.0
 43
0.0
 43
1.0
 43
0.0
 43
0.0
 43
0.0
 43
0.0
 43
1.0
 77
     0
 47
0.0208333333333333
 47
0.0
 47
0.0
 47
0.0
 47
0.0
 47
0.0208333333333333
 47
0.0
 47
0.0
 47
0.0
 47
0.0
 47
1.0
 47
0.0
 47
0.0
 47
0.0
 47
0.0
 47
1.0
171
     0
 49
0.0208333333333333
 49
0.0
 49
0.0
 49
0.0
 49
0.0
 49
0.0208333333333333
 49
0.0
 49
0.0
 49
0.0
 49
0.0
 49
1.0
 49
0.0
 49
0.0
 49
0.0
 49
0.0
 49
1.0
175
     0
142
0.0208333333333333
142
0.0
142
0.0
142
0.0
142
0.0
142
0.0208333333333333
142
0.0
142
0.0
142
0.0
142
0.0
142
1.0
142
0.0
142
0.0
142
0.0
142
0.0
142
1.0
179
     0
144
0.0208333333333333
144
0.0
144
0.0
144
0.0
144
0.0
144
0.0208333333333333
144
0.0
144
0.0
144
0.0
144
0.0
144
1.0
144
0.0
144
0.0
144
0.0
144
0.0
144
1.0
147
0.0208333333333333
147
0.0
147
0.0
147
0.0
147
0.0
147
0.0208333333333333
147
0.0
147
0.0
147
0.0
147
0.0
147
1.0
147
0.0
147
0.0
147
0.0
147
0.0
147
1.0
  0
MATERIAL
  5
11
102
{ACAD_XDICTIONARY
360
12
102
}
102
{ACAD_REACTORS
330
10
102
}
330
10
100
AcDbMaterial
  1
ByLayer
 72
     0
 43
0.0208333333333333
 43
0.0
 43
0.0
 43
0.0
 43
0.0
 43
0.0208333333333333
 43
0.0
 43
0.0
 43
0.0
 43
0.0
 43
1.0
 43
0.0
 43
0.0
 43
0.0
 43
0.0
 43
1.0
 77
     0
 47
0.0208333333333333
 47
0.0
 47
0.0
 47
0.0
 47
0.0
 47
0.0208333333333333
 47
0.0
 47
0.0
 47
0.0
 47
0.0
 47
1.0
 47
0.0
 47
0.0
 47
0.0
 47
0.0
 47
1.0
171
     0
 49
0.0208333333333333
 49
0.0
 49
0.0
 49
0.0
 49
0.0
 49
0.0208333333333333
 49
0.0
 49
0.0
 49
0.0
 49
0.0
 49
1.0
 49
0.0
 49
0.0
 49
0.0
 49
0.0
 49
1.0
175
     0
142
0.0208333333333333
142
0.0
142
0.0
142
0.0
142
0.0
142
0.0208333333333333
142
0.0
142
0.0
142
0.0
142
0.0
142
1.0
142
0.0
142
0.0
142
0.0
142
0.0
142
1.0
179
     0
144
0.0208333333333333
144
0.0
144
0.0
144
0.0
144
0.0
144
0.0208333333333333
144
0.0
144
0.0
144
0.0
144
0.0
144
1.0
144
0.0
144
0.0
144
0.0
144
0.0
144
1.0
147
0.0208333333333333
147
0.0
147
0.0
147
0.0
147
0.0
147
0.0208333333333333
147
0.0
147
0.0
147
0.0
147
0.0
147
1.0
147
0.0
147
0.0
147
0.0
147
0.0
147
1.0
  0
MATERIAL
  5
21
102
{ACAD_XDICTIONARY
360
22
102
}
102
{ACAD_REACTORS
330
10
102
}
330
10
100
AcDbMaterial
  1
Global
 72
     0
 43
0.0208333333333333
 43
0.0
 43
0.0
 43
0.0
 43
0.0
 43
0.0208333333333333
 43
0.0
 43
0.0
 43
0.0
 43
0.0
 43
1.0
 43
0.0
 43
0.0
 43
0.0
 43
0.0
 43
1.0
 77
     0
 47
0.0208333333333333
 47
0.0
 47
0.0
 47
0.0
 47
0.0
 47
0.0208333333333333
 47
0.0
 47
0.0
 47
0.0
 47
0.0
 47
1.0
 47
0.0
 47
0.0
 47
0.0
 47
0.0
 47
1.0
171
     0
 49
0.0208333333333333
 49
0.0
 49
0.0
 49
0.0
 49
0.0
 49
0.0208333333333333
 49
0.0
 49
0.0
 49
0.0
 49
0.0
 49
1.0
 49
0.0
 49
0.0
 49
0.0
 49
0.0
 49
1.0
175
     0
142
0.0208333333333333
142
0.0
142
0.0
142
0.0
142
0.0
142
0.0208333333333333
142
0.0
142
0.0
142
0.0
142
0.0
142
1.0
142
0.0
142
0.0
142
0.0
142
0.0
142
1.0
179
     0
144
0.0208333333333333
144
0.0
144
0.0
144
0.0
144
0.0
144
0.0208333333333333
144
0.0
144
0.0
144
0.0
144
0.0
144
1.0
144
0.0
144
0.0
144
0.0
144
0.0
144
1.0
147
0.0208333333333333
147
0.0
147
0.0
147
0.0
147
0.0
147
0.0208333333333333
147
0.0
147
0.0
147
0.0
147
0.0
147
1.0
147
0.0
147
0.0
147
0.0
147
0.0
147
1.0
  0
MLEADERSTYLE
  5
67
102
{ACAD_REACTORS
330
66
102
}
330
66
100
AcDbMLeaderStyle
179
     2
170
     2
171
     1
172
     0
 90
        2
 40
0.0
 41
0.0
173
     1
 91
-1056964608
340
5B
 92
       -2
290
     1
 42
0.09
291
     1
 43
0.36
  3
Standard
 44
0.18
300

342
55
174
     1
178
     6
175
     1
176
     0
 93
-1056964608
 45
0.18
292
     0
297
     0
 46
0.18
 94
-1056964608
 47
1.0
 49
1.0
140
1.0
293
     1
141
0.0
294
     1
177
     0
142
1.0
295
     0
296
     0
143
0.125
271
     0
272
     9
273
     9
298
     1
  0
MLINESTYLE
  5
60
102
{ACAD_REACTORS
330
5F
102
}
330
5F
100
AcDbMlineStyle
  2
STANDARD
 70
     0
  3

 62
   256
 51
90.0
 52
90.0
 71
     2
 49
0.5
 62
   256
  6
BYLAYER
 49
-0.5
 62
   256
  6
BYLAYER
  0
ACDBPLACEHOLDER
  5
F
102
{ACAD_REACTORS
330
E
102
}
330
E
  0
SCALE
  5
43
102
{ACAD_REACTORS
330
42
102
}
330
42
100
AcDbScale
 70
     0
300
1:1
140
1.0
141
1.0
290
     1
  0
SCALE
  5
44
102
{ACAD_REACTORS
330
42
102
}
330
42
100
AcDbScale
 70
     0
300
1/128" = 1'-0"
140
0.0078125
141
12.0
290
     0
  0
SCALE
  5
45
102
{ACAD_REACTORS
330
42
102
}
330
42
100
AcDbScale
 70
     0
300
1/64" = 1'-0"
140
0.015625
141
12.0
290
     0
  0
SCALE
  5
46
102
{ACAD_REACTORS
330
42
102
}
330
42
100
AcDbScale
 70
     0
300
1/32" = 1'-0"
140
0.03125
141
12.0
290
     0
  0
SCALE
  5
47
102
{ACAD_REACTORS
330
42
102
}
330
42
100
AcDbScale
 70
     0
300
1/16" = 1'-0"
140
0.0625
141
12.0
290
     0
  0
SCALE
  5
48
102
{ACAD_REACTORS
330
42
102
}
330
42
100
AcDbScale
 70
     0
300
3/32" = 1'-0"
140
0.09375
141
12.0
290
     0
  0
SCALE
  5
49
102
{ACAD_REACTORS
330
42
102
}
330
42
100
AcDbScale
 70
     0
300
1/8" = 1'-0"
140
0.125
141
12.0
290
     0
  0
SCALE
  5
4A
102
{ACAD_REACTORS
330
42
102
}
330
42
100
AcDbScale
 70
     0
300
3/16" = 1'-0"
140
0.1875
141
12.0
290
     0
  0
SCALE
  5
4B
102
{ACAD_REACTORS
330
42
102
}
330
42
100
AcDbScale
 70
     0
300
1/4" = 1'-0"
140
0.25
141
12.0
290
     0
  0
SCALE
  5
4C
102
{ACAD_REACTORS
330
42
102
}
330
42
100
AcDbScale
 70
     0
300
3/8" = 1'-0"
140
0.375
141
12.0
290
     0
  0
SCALE
  5
4D
102
{ACAD_REACTORS
330
42
102
}
330
42
100
AcDbScale
 70
     0
300
1/2" = 1'-0"
140
0.5
141
12.0
290
     0
  0
SCALE
  5
4E
102
{ACAD_REACTORS
330
42
102
}
330
42
100
AcDbScale
 70
     0
300
3/4" = 1'-0"
140
0.75
141
12.0
290
     0
  0
SCALE
  5
4F
102
{ACAD_REACTORS
330
42
102
}
330
42
100
AcDbScale
 70
     0
300
1" = 1'-0"
140
1.0
141
12.0
290
     0
  0
SCALE
  5
50
102
{ACAD_REACTORS
330
42
102
}
330
42
100
AcDbScale
 70
     0
300
1-1/2" = 1'-0"
140
1.5
141
12.0
290
     0
  0
SCALE
  5
51
102
{ACAD_REACTORS
330
42
102
}
330
42
100
AcDbScale
 70
     0
300
3" = 1'-0"
140
3.0
141
12.0
290
     0
  0
SCALE
  5
52
102
{ACAD_REACTORS
330
42
102
}
330
42
100
AcDbScale
 70
     0
300
6" = 1'-0"
140
6.0
141
12.0
290
     0
  0
SCALE
  5
53
102
{ACAD_REACTORS
330
42
102
}
330
42
100
AcDbScale
 70
     0
300
1'-0" = 1'-0"
140
12.0
141
12.0
290
     0
  0
ACDBSECTIONVIEWSTYLE
  5
69
102
{ACAD_XDICTIONARY
360
13D
102
}
102
{ACAD_REACTORS
330
68
102
}
330
68
100
AcDbModelDocViewStyle
 70
     0
  3
Imperial24
290
     0
100
AcDbSectionViewStyle
 70
     0
 71
     0
 90
       78
 71
     1
340
55
 62
   256
 40
0.24
340
0
340
0
 62
   256
 40
0.24
300
I, O, Q, S, X, Z
 40
0.48
 90
        3
 40
0.18
 90
        1
 71
     2
340
5D
 90
       25
 62
   256
340
5D
 90
       50
 62
   256
 40
0.24
 40
0.0
 40
0.24
 71
     3
340
55
 62
   256
 40
0.24
 90
        1
 40
0.75
 90
        1
300
%<\AcVar ViewType \f "%tc1">% %<\AcVar ViewSectionStartId>%-%<\AcVar ViewSectionEndId>%\PSCALE %<\AcVar ViewScale \f "%sn">%
 71
     4
 62
   256
 62
   257
300
ANSI31
 40
1.0
 90
        0
290
     0
290
     0
 90
        6
 40
0.0
 40
1.570796326794896
 40
0.2617993877991494
 40
1.308996938995747
 40
-0.2617993877991494
 40
1.832595714594046
  0
TABLESTYLE
  5
65
102
{ACAD_XDICTIONARY
360
13A
102
}
102
{ACAD_REACTORS
330
64
102
}
330
64
100
AcDbTableStyle
280
     0
  3
Standard
 70
     0
 71
     0
 40
0.06
 41
0.06
280
     0
281
     0
  7
Standard
140
0.18
170
     2
 62
     0
 63
     7
283
     0
 90
      512
 91
        0
  1

274
    -2
284
     1
 64
     0
275
    -2
285
     1
 65
     0
276
    -2
286
     1
 66
     0
277
    -2
287
     1
 67
     0
278
    -2
288
     1
 68
     0
279
    -2
289
     1
 69
     0
  7
Standard
140
0.25
170
     5
 62
     0
 63
     7
283
     0
 90
      512
 91
        0
  1

274
    -2
284
     1
 64
     0
275
    -2
285
     1
 65
     0
276
    -2
286
     1
 66
     0
277
    -2
287
     1
 67
     0
278
    -2
288
     1
 68
     0
279
    -2
289
     1
 69
     0
  7
Standard
140
0.18
170
     5
 62
     0
 63
     7
283
     0
 90
      512
 91
        0
  1

274
    -2
284
     1
 64
     0
275
    -2
285
     1
 65
     0
276
    -2
286
     1
 66
     0
277
    -2
287
     1
 67
     0
278
    -2
288
     1
 68
     0
279
    -2
289
     1
 69
     0
  0
VISUALSTYLE
  5
2F
102
{ACAD_REACTORS
330
29
102
}
330
29
100
AcDbVisualStyle
  2
2dWireframe
 70
     4
177
     3
291
     0
 70
    58
 90
        0
176
     1
 90
        2
176
     1
 90
        0
176
     1
 90
        0
176
     1
 40
0.6
176
     1
 40
30.0
176
     1
 62
     7
420
 16777215
176
     1
 90
        1
176
     1
 90
        4
176
     1
 62
     7
176
     1
 62
   257
176
     1
 90
        1
176
     1
 90
        1
176
     1
 40
1.0
176
     1
 90
        0
176
     1
 62
   257
176
     1
 40
1.0
176
     1
 90
        1
176
     1
 90
        6
176
     1
 90
        2
176
     1
 62
     7
176
     1
 90
        5
176
     1
 90
        0
176
     1
 90
        0
176
     1
290
     0
176
     1
 90
        1
176
     1
 40
0.0
176
     1
 90
        0
176
     1
290
     1
176
     1
290
     1
176
     1
290
     0
176
     1
290
     0
176
     1
290
     0
176
     1
290
     0
176
     1
290
     0
176
     1
290
     0
176
     1
290
     0
176
     1
 90
       50
176
     1
 40
0.0
176
     1
 40
1.0
176
     1
 90
        0
176
     1
 62
    18
420
        0
176
     1
 90
       50
176
     1
 90
        3
176
     1
 62
     5
420
      255
176
     1
290
     0
176
     1
 90
       50
176
     1
 90
       50
176
     1
 90
       50
176
     1
290
     0
176
     1
 90
       50
176
     1
 62
   256
176
     0
 40
1.0
176
     0
 90
        2
176
     1
  1
strokes_ogs.tif
176
     1
290
     0
176
     1
 40
1.0
176
     1
 40
1.0
176
     1
1001
ACAD
1000
AcDbSavedByObjectVersion
1070
     0
  0
VISUALSTYLE
  5
2E
102
{ACAD_REACTORS
330
29
102
}
330
29
100
AcDbVisualStyle
  2
Basic
 70
     7
177
     3
291
     1
 70
    58
 90
        1
176
     1
 90
        0
176
     1
 90
        1
176
     1
 90
        0
176
     1
 40
0.6
176
     1
 40
30.0
176
     1
 62
     7
420
 16777215
176
     1
 90
        0
176
     1
 90
        4
176
     1
 62
     7
176
     1
 62
   257
176
     1
 90
        1
176
     1
 90
        1
176
     1
 40
1.0
176
     1
 90
        8
176
     1
 62
     7
176
     1
 40
1.0
176
     1
 90
        1
176
     1
 90
        6
176
     1
 90
        2
176
     1
 62
     7
176
     1
 90
        5
176
     1
 90
        0
176
     1
 90
        0
176
     1
290
     0
176
     1
 90
        1
176
     1
 40
0.0
176
     1
 90
        0
176
     1
290
     0
176
     1
290
     1
176
     1
290
     1
176
     1
290
     0
176
     1
290
     0
176
     1
290
     0
176
     1
290
     0
176
     1
290
     0
176
     1
290
     0
176
     1
 90
       50
176
     1
 40
0.0
176
     1
 40
1.0
176
     1
 90
        0
176
     1
 62
    18
420
        0
176
     1
 90
       50
176
     1
 90
        3
176
     1
 62
     5
420
      255
176
     1
290
     0
176
     1
 90
       50
176
     1
 90
       50
176
     1
 90
       50
176
     1
290
     0
176
     1
 90
       50
176
     1
 62
   256
176
     0
 40
1.0
176
     0
 90
        2
176
     1
  1
strokes_ogs.tif
176
     1
290
     0
176
     1
 40
1.0
176
     1
 40
1.0
176
     1
1001
ACAD
1000
AcDbSavedByObjectVersion
1070
     0
  0
VISUALSTYLE
  5
35
102
{ACAD_REACTORS
330
29
102
}
330
29
100
AcDbVisualStyle
  2
Brighten
 70
    12
177
     3
291
     1
 70
    58
 90
        2
176
     1
 90
        2
176
     1
 90
        0
176
     1
 90
        0
176
     1
 40
0.6
176
     1
 40
30.0
176
     1
 62
     7
420
 16777215
176
     1
 90
        1
176
     1
 90
        4
176
     1
 62
     7
176
     1
 62
   257
176
     1
 90
        1
176
     1
 90
        1
176
     1
 40
1.0
176
     1
 90
        8
176
     1
 62
     7
176
     1
 40
1.0
176
     1
 90
        1
176
     1
 90
        6
176
     1
 90
        2
176
     1
 62
     7
176
     1
 90
        5
176
     1
 90
        0
176
     1
 90
        0
176
     1
290
     0
176
     1
 90
        1
176
     1
 40
50.0
176
     1
 90
        0
176
     1
290
     0
176
     1
290
     1
176
     1
290
     1
176
     1
290
     0
176
     1
290
     0
176
     1
290
     0
176
     1
290
     0
176
     1
290
     0
176
     1
290
     0
176
     1
 90
       50
176
     1
 40
0.0
176
     1
 40
1.0
176
     1
 90
        0
176
     1
 62
    18
420
        0
176
     1
 90
       50
176
     1
 90
        3
176
     1
 62
     5
420
      255
176
     1
290
     0
176
     1
 90
       50
176
     1
 90
       50
176
     1
 90
       50
176
     1
290
     0
176
     1
 90
       50
176
     1
 62
   256
176
     0
 40
1.0
176
     0
 90
        2
176
     1
  1
strokes_ogs.tif
176
     1
290
     0
176
     1
 40
1.0
176
     1
 40
1.0
176
     1
1001
ACAD
1000
AcDbSavedByObjectVersion
1070
     0
  0
VISUALSTYLE
  5
39
102
{ACAD_REACTORS
330
29
102
}
330
29
100
AcDbVisualStyle
  2
ColorChange
 70
    16
177
     3
291
     1
 70
    58
 90
        2
176
     1
 90
        2
176
     1
 90
        3
176
     1
 90
        0
176
     1
 40
0.6
176
     1
 40
30.0
176
     1
 62
     8
420
  8421504
176
     1
 90
        1
176
     1
 90
        4
176
     1
 62
     7
176
     1
 62
   257
176
     1
 90
        1
176
     1
 90
        1
176
     1
 40
1.0
176
     1
 90
        8
176
     1
 62
     8
420
  8421504
176
     1
 40
1.0
176
     1
 90
        1
176
     1
 90
        6
176
     1
 90
        2
176
     1
 62
     7
176
     1
 90
        5
176
     1
 90
        0
176
     1
 90
        0
176
     1
290
     0
176
     1
 90
        1
176
     1
 40
0.0
176
     1
 90
        0
176
     1
290
     0
176
     1
290
     1
176
     1
290
     1
176
     1
290
     0
176
     1
290
     0
176
     1
290
     0
176
     1
290
     0
176
     1
290
     0
176
     1
290
     0
176
     1
 90
       50
176
     1
 40
0.0
176
     1
 40
1.0
176
     1
 90
        0
176
     1
 62
    18
420
        0
176
     1
 90
       50
176
     1
 90
        3
176
     1
 62
     5
420
      255
176
     1
290
     0
176
     1
 90
       50
176
     1
 90
       50
176
     1
 90
       50
176
     1
290
     0
176
     1
 90
       50
176
     1
 62
   256
176
     0
 40
1.0
176
     0
 90
        2
176
     1
  1
strokes_ogs.tif
176
     1
290
     0
176
     1
 40
1.0
176
     1
 40
1.0
176
     1
1001
ACAD
1000
AcDbSavedByObjectVersion
1070
     0
  0
VISUALSTYLE
  5
32
102
{ACAD_REACTORS
330
29
102
}
330
29
100
AcDbVisualStyle
  2
Conceptual
 70
     9
177
     3
291
     0
 70
    58
 90
        3
176
     1
 90
        2
176
     1
 90
        0
176
     1
 90
        0
176
     1
 40
0.6
176
     1
 40
30.0
176
     1
 62
     7
420
 16777215
176
     1
 90
        2
176
     1
 90
        2
176
     1
 62
     7
176
     1
 62
   257
176
     1
 90
        1
176
     1
 90
        1
176
     1
 40
179.0
176
     1
 90
        8
176
     1
 62
     7
176
     1
 40
1.0
176
     1
 90
        1
176
     1
 90
        6
176
     1
 90
        2
176
     1
 62
     7
176
     1
 90
        3
176
     1
 90
        0
176
     1
 90
        0
176
     1
290
     0
176
     1
 90
        1
176
     1
 40
0.0
176
     1
 90
        0
176
     1
290
     0
176
     1
290
     1
176
     1
290
     1
176
     1
290
     0
176
     1
290
     0
176
     1
290
     0
176
     1
290
     0
176
     1
290
     0
176
     1
290
     0
176
     1
 90
       50
176
     1
 40
0.0
176
     1
 40
1.0
176
     1
 90
        0
176
     1
 62
    18
420
        0
176
     1
 90
       50
176
     1
 90
        3
176
     1
 62
     5
420
      255
176
     1
290
     0
176
     1
 90
       50
176
     1
 90
       50
176
     1
 90
       50
176
     1
290
     0
176
     1
 90
       50
176
     1
 62
   256
176
     0
 40
1.0
176
     0
 90
        2
176
     1
  1
strokes_ogs.tif
176
     1
290
     0
176
     1
 40
1.0
176
     1
 40
1.0
176
     1
1001
ACAD
1000
AcDbSavedByObjectVersion
1070
     0
  0
VISUALSTYLE
  5
34
102
{ACAD_REACTORS
330
29
102
}
330
29
100
AcDbVisualStyle
  2
Dim
 70
    11
177
     3
291
     1
 70
    58
 90
        2
176
     1
 90
        2
176
     1
 90
        0
176
     1
 90
        0
176
     1
 40
0.6
176
     1
 40
30.0
176
     1
 62
     7
420
 16777215
176
     1
 90
        1
176
     1
 90
        4
176
     1
 62
     7
176
     1
 62
   257
176
     1
 90
        1
176
     1
 90
        1
176
     1
 40
1.0
176
     1
 90
        8
176
     1
 62
     7
176
     1
 40
1.0
176
     1
 90
        1
176
     1
 90
        6
176
     1
 90
        2
176
     1
 62
     7
176
     1
 90
        5
176
     1
 90
        0
176
     1
 90
        0
176
     1
290
     0
176
     1
 90
        1
176
     1
 40
-50.0
176
     1
 90
        0
176
     1
290
     0
176
     1
290
     1
176
     1
290
     1
176
     1
290
     0
176
     1
290
     0
176
     1
290
     0
176
     1
290
     0
176
     1
290
     0
176
     1
290
     0
176
     1
 90
       50
176
     1
 40
0.0
176
     1
 40
1.0
176
     1
 90
        0
176
     1
 62
    18
420
        0
176
     1
 90
       50
176
     1
 90
        3
176
     1
 62
     5
420
      255
176
     1
290
     0
176
     1
 90
       50
176
     1
 90
       50
176
     1
 90
       50
176
     1
290
     0
176
     1
 90
       50
176
     1
 62
   256
176
     0
 40
1.0
176
     0
 90
        2
176
     1
  1
strokes_ogs.tif
176
     1
290
     0
176
     1
 40
1.0
176
     1
 40
1.0
176
     1
1001
ACAD
1000
AcDbSavedByObjectVersion
1070
     0
  0
VISUALSTYLE
  5
41
102
{ACAD_REACTORS
330
29
102
}
330
29
100
AcDbVisualStyle
  2
EdgeColorOff
 70
    22
177
     3
291
     1
 70
    58
 90
        2
176
     0
 90
        2
176
     0
 90
        0
176
     0
 90
        0
176
     0
 40
0.6
176
     0
 40
30.0
176
     0
 62
     7
420
 16777215
176
     0
 90
        1
176
     0
 90
        4
176
     0
 62
     7
176
     0
 62
   257
176
     0
 90
        1
176
     0
 90
        1
176
     0
 40
1.0
176
     0
 90
        8
176
     2
 62
     7
176
     0
 40
1.0
176
     0
 90
        1
176
     0
 90
        6
176
     0
 90
        2
176
     0
 62
     7
176
     0
 90
        5
176
     0
 90
        0
176
     0
 90
        0
176
     0
290
     0
176
     0
 90
        1
176
     0
 40
0.0
176
     0
 90
        0
176
     0
290
     0
176
     0
290
     1
176
     0
290
     1
176
     0
290
     0
176
     0
290
     0
176
     0
290
     0
176
     0
290
     0
176
     0
290
     0
176
     0
290
     0
176
     0
 90
       50
176
     0
 40
0.0
176
     0
 40
1.0
176
     0
 90
        0
176
     0
 62
    18
420
        0
176
     0
 90
       50
176
     0
 90
        3
176
     0
 62
     5
420
      255
176
     0
290
     0
176
     0
 90
       50
176
     0
 90
       50
176
     0
 90
       50
176
     0
290
     0
176
     0
 90
       50
176
     0
 62
   256
176
     0
 40
1.0
176
     0
 90
        2
176
     0
  1
strokes_ogs.tif
176
     0
290
     0
176
     0
 40
1.0
176
     0
 40
1.0
176
     0
1001
ACAD
1000
AcDbSavedByObjectVersion
1070
     0
  0
VISUALSTYLE
  5
38
102
{ACAD_REACTORS
330
29
102
}
330
29
100
AcDbVisualStyle
  2
Facepattern
 70
    15
177
     3
291
     1
 70
    58
 90
        2
176
     1
 90
        2
176
     1
 90
        0
176
     1
 90
        0
176
     1
 40
0.6
176
     1
 40
30.0
176
     1
 62
     7
420
 16777215
176
     1
 90
        1
176
     1
 90
        4
176
     1
 62
     7
176
     1
 62
   257
176
     1
 90
        1
176
     1
 90
        1
176
     1
 40
1.0
176
     1
 90
        8
176
     1
 62
     7
176
     1
 40
1.0
176
     1
 90
        1
176
     1
 90
        6
176
     1
 90
        2
176
     1
 62
     7
176
     1
 90
        5
176
     1
 90
        0
176
     1
 90
        0
176
     1
290
     0
176
     1
 90
        1
176
     1
 40
0.0
176
     1
 90
        0
176
     1
290
     0
176
     1
290
     1
176
     1
290
     1
176
     1
290
     0
176
     1
290
     0
176
     1
290
     0
176
     1
290
     0
176
     1
290
     0
176
     1
290
     0
176
     1
 90
       50
176
     1
 40
0.0
176
     1
 40
1.0
176
     1
 90
        0
176
     1
 62
    18
420
        0
176
     1
 90
       50
176
     1
 90
        3
176
     1
 62
     5
420
      255
176
     1
290
     0
176
     1
 90
       50
176
     1
 90
       50
176
     1
 90
       50
176
     1
290
     0
176
     1
 90
       50
176
     1
 62
   256
176
     0
 40
1.0
176
     0
 90
        2
176
     1
  1
strokes_ogs.tif
176
     1
290
     0
176
     1
 40
1.0
176
     1
 40
1.0
176
     1
1001
ACAD
1000
AcDbSavedByObjectVersion
1070
     0
  0
VISUALSTYLE
  5
2A
102
{ACAD_REACTORS
330
29
102
}
330
29
100
AcDbVisualStyle
  2
Flat
 70
     0
177
     3
291
     1
 70
    58
 90
        2
176
     1
 90
        1
176
     1
 90
        1
176
     1
 90
        2
176
     1
 40
0.6
176
     1
 40
30.0
176
     1
 62
     7
420
 16777215
176
     1
 90
        0
176
     1
 90
        0
176
     1
 62
     7
176
     1
 62
   257
176
     1
 90
        1
176
     1
 90
        1
176
     1
 40
1.0
176
     1
 90
        8
176
     1
 62
     7
176
     1
 40
1.0
176
     1
 90
        1
176
     1
 90
        6
176
     1
 90
        2
176
     1
 62
     7
176
     1
 90
        5
176
     1
 90
        0
176
     1
 90
        0
176
     1
290
     0
176
     1
 90
       13
176
     1
 40
0.0
176
     1
 90
        0
176
     1
290
     0
176
     1
290
     1
176
     1
290
     1
176
     1
290
     0
176
     1
290
     0
176
     1
290
     0
176
     1
290
     0
176
     1
290
     0
176
     1
290
     0
176
     1
 90
       50
176
     1
 40
0.0
176
     1
 40
1.0
176
     1
 90
        0
176
     1
 62
    18
420
        0
176
     1
 90
       50
176
     1
 90
        3
176
     1
 62
     5
420
      255
176
     1
290
     0
176
     1
 90
       50
176
     1
 90
       50
176
     1
 90
       50
176
     1
290
     0
176
     1
 90
       50
176
     1
 62
   256
176
     0
 40
1.0
176
     0
 90
        2
176
     1
  1
strokes_ogs.tif
176
     1
290
     0
176
     1
 40
1.0
176
     1
 40
1.0
176
     1
1001
ACAD
1000
AcDbSavedByObjectVersion
1070
     0
  0
VISUALSTYLE
  5
2B
102
{ACAD_REACTORS
330
29
102
}
330
29
100
AcDbVisualStyle
  2
FlatWithEdges
 70
     1
177
     3
291
     1
 70
    58
 90
        2
176
     1
 90
        1
176
     1
 90
        1
176
     1
 90
        2
176
     1
 40
0.6
176
     1
 40
30.0
176
     1
 62
     7
420
 16777215
176
     1
 90
        1
176
     1
 90
        0
176
     1
 62
     7
176
     1
 62
   257
176
     1
 90
        1
176
     1
 90
        1
176
     1
 40
1.0
176
     1
 90
        0
176
     1
 62
   257
176
     1
 40
1.0
176
     1
 90
        1
176
     1
 90
        6
176
     1
 90
        2
176
     1
 62
     7
176
     1
 90
        5
176
     1
 90
        0
176
     1
 90
        0
176
     1
290
     0
176
     1
 90
       13
176
     1
 40
0.0
176
     1
 90
        0
176
     1
290
     0
176
     1
290
     1
176
     1
290
     1
176
     1
290
     0
176
     1
290
     0
176
     1
290
     0
176
     1
290
     0
176
     1
290
     0
176
     1
290
     0
176
     1
 90
       50
176
     1
 40
0.0
176
     1
 40
1.0
176
     1
 90
        0
176
     1
 62
    18
420
        0
176
     1
 90
       50
176
     1
 90
        3
176
     1
 62
     5
420
      255
176
     1
290
     0
176
     1
 90
       50
176
     1
 90
       50
176
     1
 90
       50
176
     1
290
     0
176
     1
 90
       50
176
     1
 62
   256
176
     0
 40
1.0
176
     0
 90
        2
176
     1
  1
strokes_ogs.tif
176
     1
290
     0
176
     1
 40
1.0
176
     1
 40
1.0
176
     1
1001
ACAD
1000
AcDbSavedByObjectVersion
1070
     0
  0
VISUALSTYLE
  5
2C
102
{ACAD_REACTORS
330
29
102
}
330
29
100
AcDbVisualStyle
  2
Gouraud
 70
     2
177
     3
291
     1
 70
    58
 90
        2
176
     1
 90
        2
176
     1
 90
        1
176
     1
 90
        2
176
     1
 40
0.6
176
     1
 40
30.0
176
     1
 62
     7
420
 16777215
176
     1
 90
        0
176
     1
 90
        0
176
     1
 62
     7
176
     1
 62
   257
176
     1
 90
        1
176
     1
 90
        1
176
     1
 40
1.0
176
     1
 90
        0
176
     1
 62
     7
176
     1
 40
1.0
176
     1
 90
        1
176
     1
 90
        6
176
     1
 90
        2
176
     1
 62
     7
176
     1
 90
        5
176
     1
 90
        0
176
     1
 90
        0
176
     1
290
     0
176
     1
 90
       13
176
     1
 40
0.0
176
     1
 90
        0
176
     1
290
     0
176
     1
290
     1
176
     1
290
     1
176
     1
290
     0
176
     1
290
     0
176
     1
290
     0
176
     1
290
     0
176
     1
290
     0
176
     1
290
     0
176
     1
 90
       50
176
     1
 40
0.0
176
     1
 40
1.0
176
     1
 90
        0
176
     1
 62
    18
420
        0
176
     1
 90
       50
176
     1
 90
        3
176
     1
 62
     5
420
      255
176
     1
290
     0
176
     1
 90
       50
176
     1
 90
       50
176
     1
 90
       50
176
     1
290
     0
176
     1
 90
       50
176
     1
 62
   256
176
     0
 40
1.0
176
     0
 90
        2
176
     1
  1
strokes_ogs.tif
176
     1
290
     0
176
     1
 40
1.0
176
     1
 40
1.0
176
     1
1001
ACAD
1000
AcDbSavedByObjectVersion
1070
     0
  0
VISUALSTYLE
  5
2D
102
{ACAD_REACTORS
330
29
102
}
330
29
100
AcDbVisualStyle
  2
GouraudWithEdges
 70
     3
177
     3
291
     1
 70
    58
 90
        2
176
     1
 90
        2
176
     1
 90
        1
176
     1
 90
        2
176
     1
 40
0.6
176
     1
 40
30.0
176
     1
 62
     7
420
 16777215
176
     1
 90
        1
176
     1
 90
        0
176
     1
 62
     7
176
     1
 62
   257
176
     1
 90
        1
176
     1
 90
        1
176
     1
 40
1.0
176
     1
 90
        0
176
     1
 62
   257
176
     1
 40
1.0
176
     1
 90
        1
176
     1
 90
        6
176
     1
 90
        2
176
     1
 62
     7
176
     1
 90
        5
176
     1
 90
        0
176
     1
 90
        0
176
     1
290
     0
176
     1
 90
       13
176
     1
 40
0.0
176
     1
 90
        0
176
     1
290
     0
176
     1
290
     1
176
     1
290
     1
176
     1
290
     0
176
     1
290
     0
176
     1
290
     0
176
     1
290
     0
176
     1
290
     0
176
     1
290
     0
176
     1
 90
       50
176
     1
 40
0.0
176
     1
 40
1.0
176
     1
 90
        0
176
     1
 62
    18
420
        0
176
     1
 90
       50
176
     1
 90
        3
176
     1
 62
     5
420
      255
176
     1
290
     0
176
     1
 90
       50
176
     1
 90
       50
176
     1
 90
       50
176
     1
290
     0
176
     1
 90
       50
176
     1
 62
   256
176
     0
 40
1.0
176
     0
 90
        2
176
     1
  1
strokes_ogs.tif
176
     1
290
     0
176
     1
 40
1.0
176
     1
 40
1.0
176
     1
1001
ACAD
1000
AcDbSavedByObjectVersion
1070
     0
  0
VISUALSTYLE
  5
31
102
{ACAD_REACTORS
330
29
102
}
330
29
100
AcDbVisualStyle
  2
Hidden
 70
     6
177
     3
291
     0
 70
    58
 90
        1
176
     1
 90
        2
176
     1
 90
        2
176
     1
 90
        0
176
     1
 40
0.6
176
     1
 40
30.0
176
     1
 62
     7
420
 16777215
176
     1
 90
        2
176
     1
 90
        2
176
     1
 62
     7
176
     1
 62
   257
176
     1
 90
        2
176
     1
 90
        1
176
     1
 40
40.0
176
     1
 90
        0
176
     1
 62
   257
176
     1
 40
1.0
176
     1
 90
        1
176
     1
 90
        6
176
     1
 90
        2
176
     1
 62
     7
176
     1
 90
        3
176
     1
 90
        0
176
     1
 90
        0
176
     1
290
     0
176
     1
 90
        1
176
     1
 40
0.0
176
     1
 90
        0
176
     1
290
     0
176
     1
290
     1
176
     1
290
     1
176
     1
290
     0
176
     1
290
     0
176
     1
290
     0
176
     1
290
     0
176
     1
290
     0
176
     1
290
     0
176
     1
 90
       50
176
     1
 40
0.0
176
     1
 40
1.0
176
     1
 90
        0
176
     1
 62
    18
420
        0
176
     1
 90
       50
176
     1
 90
        3
176
     1
 62
     5
420
      255
176
     1
290
     0
176
     1
 90
       50
176
     1
 90
       50
176
     1
 90
       50
176
     1
290
     0
176
     1
 90
       50
176
     1
 62
   256
176
     0
 40
1.0
176
     0
 90
        2
176
     1
  1
strokes_ogs.tif
176
     1
290
     0
176
     1
 40
1.0
176
     1
 40
1.0
176
     1
1001
ACAD
1000
AcDbSavedByObjectVersion
1070
     0
  0
VISUALSTYLE
  5
3F
102
{ACAD_REACTORS
330
29
102
}
330
29
100
AcDbVisualStyle
  2
JitterOff
 70
    20
177
     3
291
     1
 70
    58
 90
        2
176
     0
 90
        2
176
     0
 90
        0
176
     0
 90
        0
176
     0
 40
0.6
176
     0
 40
30.0
176
     0
 62
     7
420
 16777215
176
     0
 90
        1
176
     0
 90
        4
176
     0
 62
     7
176
     0
 62
   257
176
     0
 90
        1
176
     0
 90
        1
176
     0
 40
1.0
176
     0
 90
       10
176
     2
 62
     7
176
     0
 40
1.0
176
     0
 90
        1
176
     0
 90
        6
176
     0
 90
        2
176
     0
 62
     7
176
     0
 90
        5
176
     0
 90
        0
176
     0
 90
        0
176
     0
290
     0
176
     0
 90
        1
176
     0
 40
0.0
176
     0
 90
        0
176
     0
290
     0
176
     0
290
     1
176
     0
290
     1
176
     0
290
     0
176
     0
290
     0
176
     0
290
     0
176
     0
290
     0
176
     0
290
     0
176
     0
290
     0
176
     0
 90
       50
176
     0
 40
0.0
176
     0
 40
1.0
176
     0
 90
        0
176
     0
 62
    18
420
        0
176
     0
 90
       50
176
     0
 90
        3
176
     0
 62
     5
420
      255
176
     0
290
     0
176
     0
 90
       50
176
     0
 90
       50
176
     0
 90
       50
176
     0
290
     0
176
     0
 90
       50
176
     0
 62
   256
176
     0
 40
1.0
176
     0
 90
        2
176
     0
  1
strokes_ogs.tif
176
     0
290
     0
176
     0
 40
1.0
176
     0
 40
1.0
176
     0
1001
ACAD
1000
AcDbSavedByObjectVersion
1070
     0
  0
VISUALSTYLE
  5
37
102
{ACAD_REACTORS
330
29
102
}
330
29
100
AcDbVisualStyle
  2
Linepattern
 70
    14
177
     3
291
     1
 70
    58
 90
        2
176
     1
 90
        2
176
     1
 90
        0
176
     1
 90
        0
176
     1
 40
0.6
176
     1
 40
30.0
176
     1
 62
     7
420
 16777215
176
     1
 90
        1
176
     1
 90
        4
176
     1
 62
     7
176
     1
 62
   257
176
     1
 90
        7
176
     1
 90
        7
176
     1
 40
1.0
176
     1
 90
        8
176
     1
 62
     7
176
     1
 40
1.0
176
     1
 90
        1
176
     1
 90
        6
176
     1
 90
        2
176
     1
 62
     7
176
     1
 90
        5
176
     1
 90
        0
176
     1
 90
        0
176
     1
290
     0
176
     1
 90
        1
176
     1
 40
0.0
176
     1
 90
        0
176
     1
290
     0
176
     1
290
     1
176
     1
290
     1
176
     1
290
     0
176
     1
290
     0
176
     1
290
     0
176
     1
290
     0
176
     1
290
     0
176
     1
290
     0
176
     1
 90
       50
176
     1
 40
0.0
176
     1
 40
1.0
176
     1
 90
        0
176
     1
 62
    18
420
        0
176
     1
 90
       50
176
     1
 90
        3
176
     1
 62
     5
420
      255
176
     1
290
     0
176
     1
 90
       50
176
     1
 90
       50
176
     1
 90
       50
176
     1
290
     0
176
     1
 90
       50
176
     1
 62
   256
176
     0
 40
1.0
176
     0
 90
        2
176
     1
  1
strokes_ogs.tif
176
     1
290
     0
176
     1
 40
1.0
176
     1
 40
1.0
176
     1
1001
ACAD
1000
AcDbSavedByObjectVersion
1070
     0
  0
VISUALSTYLE
  5
40
102
{ACAD_REACTORS
330
29
102
}
330
29
100
AcDbVisualStyle
  2
OverhangOff
 70
    21
177
     3
291
     1
 70
    58
 90
        2
176
     0
 90
        2
176
     0
 90
        0
176
     0
 90
        0
176
     0
 40
0.6
176
     0
 40
30.0
176
     0
 62
     7
420
 16777215
176
     0
 90
        1
176
     0
 90
        4
176
     0
 62
     7
176
     0
 62
   257
176
     0
 90
        1
176
     0
 90
        1
176
     0
 40
1.0
176
     0
 90
        9
176
     2
 62
     7
176
     0
 40
1.0
176
     0
 90
        1
176
     0
 90
        6
176
     0
 90
        2
176
     0
 62
     7
176
     0
 90
        5
176
     0
 90
        0
176
     0
 90
        0
176
     0
290
     0
176
     0
 90
        1
176
     0
 40
0.0
176
     0
 90
        0
176
     0
290
     0
176
     0
290
     1
176
     0
290
     1
176
     0
290
     0
176
     0
290
     0
176
     0
290
     0
176
     0
290
     0
176
     0
290
     0
176
     0
290
     0
176
     0
 90
       50
176
     0
 40
0.0
176
     0
 40
1.0
176
     0
 90
        0
176
     0
 62
    18
420
        0
176
     0
 90
       50
176
     0
 90
        3
176
     0
 62
     5
420
      255
176
     0
290
     0
176
     0
 90
       50
176
     0
 90
       50
176
     0
 90
       50
176
     0
290
     0
176
     0
 90
       50
176
     0
 62
   256
176
     0
 40
1.0
176
     0
 90
        2
176
     0
  1
strokes_ogs.tif
176
     0
290
     0
176
     0
 40
1.0
176
     0
 40
1.0
176
     0
1001
ACAD
1000
AcDbSavedByObjectVersion
1070
     0
  0
VISUALSTYLE
  5
33
102
{ACAD_REACTORS
330
29
102
}
330
29
100
AcDbVisualStyle
  2
Realistic
 70
     8
177
     3
291
     0
 70
    58
 90
        2
176
     1
 90
        3
176
     1
 90
        0
176
     1
 90
        2
176
     1
 40
0.6
176
     1
 40
30.0
176
     1
 62
     7
420
 16777215
176
     1
 90
        0
176
     1
 90
        0
176
     1
 62
     7
176
     1
 62
   257
176
     1
 90
        1
176
     1
 90
        1
176
     1
 40
1.0
176
     1
 90
        8
176
     1
 62
   257
176
     1
 40
1.0
176
     1
 90
        1
176
     1
 90
        6
176
     1
 90
        2
176
     1
 62
     7
176
     1
 90
        3
176
     1
 90
        0
176
     1
 90
        0
176
     1
290
     0
176
     1
 90
       13
176
     1
 40
0.0
176
     1
 90
        0
176
     1
290
     0
176
     1
290
     1
176
     1
290
     1
176
     1
290
     0
176
     1
290
     0
176
     1
290
     0
176
     1
290
     0
176
     1
290
     0
176
     1
290
     0
176
     1
 90
       50
176
     1
 40
0.0
176
     1
 40
1.0
176
     1
 90
        0
176
     1
 62
    18
420
        0
176
     1
 90
       50
176
     1
 90
        3
176
     1
 62
     5
420
      255
176
     1
290
     0
176
     1
 90
       50
176
     1
 90
       50
176
     1
 90
       50
176
     1
290
     0
176
     1
 90
       50
176
     1
 62
   256
176
     0
 40
1.0
176
     0
 90
        2
176
     1
  1
strokes_ogs.tif
176
     1
290
     0
176
     1
 40
1.0
176
     1
 40
1.0
176
     1
1001
ACAD
1000
AcDbSavedByObjectVersion
1070
     0
  0
VISUALSTYLE
  5
3E
102
{ACAD_REACTORS
330
29
102
}
330
29
100
AcDbVisualStyle
  2
Shaded
 70
    27
177
     3
291
     0
 70
    58
 90
        2
176
     1
 90
        2
176
     1
 90
        1
176
     1
 90
        2
176
     1
 40
0.6
176
     1
 40
30.0
176
     1
 62
     7
420
 16777215
176
     1
 90
        0
176
     1
 90
        4
176
     1
 62
     7
176
     1
 62
   257
176
     1
 90
        1
176
     1
 90
        1
176
     1
 40
1.0
176
     1
 90
        8
176
     1
 62
   257
176
     1
 40
1.0
176
     1
 90
        1
176
     1
 90
        6
176
     1
 90
        2
176
     1
 62
     8
420
  7895160
176
     1
 90
        3
176
     1
 90
        0
176
     1
 90
        0
176
     1
290
     0
176
     1
 90
        5
176
     1
 40
0.0
176
     1
 90
        0
176
     1
290
     0
176
     1
290
     1
176
     1
290
     1
176
     1
290
     0
176
     1
290
     0
176
     1
290
     0
176
     1
290
     0
176
     1
290
     0
176
     1
290
     0
176
     1
 90
       50
176
     1
 40
0.0
176
     1
 40
1.0
176
     1
 90
        0
176
     1
 62
    18
420
        0
176
     1
 90
       50
176
     1
 90
        3
176
     1
 62
     5
420
      255
176
     1
290
     0
176
     1
 90
       50
176
     1
 90
       50
176
     1
 90
       50
176
     1
290
     0
176
     1
 90
       50
176
     1
 62
   256
176
     0
 40
1.0
176
     0
 90
        2
176
     1
  1
strokes_ogs.tif
176
     1
290
     0
176
     1
 40
1.0
176
     1
 40
1.0
176
     1
1001
ACAD
1000
AcDbSavedByObjectVersion
1070
     0
  0
VISUALSTYLE
  5
3D
102
{ACAD_REACTORS
330
29
102
}
330
29
100
AcDbVisualStyle
  2
Shaded with edges
 70
    26
177
     3
291
     0
 70
    58
 90
        2
176
     1
 90
        2
176
     1
 90
        1
176
     1
 90
        2
176
     1
 40
0.6
176
     1
 40
30.0
176
     1
 62
     7
420
 16777215
176
     1
 90
        1
176
     1
 90
        2
176
     1
 62
     7
176
     1
 62
   257
176
     1
 90
        2
176
     1
 90
        1
176
     1
 40
1.0
176
     1
 90
        8
176
     1
 62
   257
176
     1
 40
1.0
176
     1
 90
        1
176
     1
 90
        6
176
     1
 90
        2
176
     1
 62
     7
176
     1
 90
        3
176
     1
 90
        0
176
     1
 90
        0
176
     1
290
     0
176
     1
 90
        5
176
     1
 40
0.0
176
     1
 90
        0
176
     1
290
     0
176
     1
290
     1
176
     1
290
     1
176
     1
290
     0
176
     1
290
     0
176
     1
290
     0
176
     1
290
     0
176
     1
290
     0
176
     1
290
     0
176
     1
 90
       50
176
     1
 40
0.0
176
     1
 40
1.0
176
     1
 90
        0
176
     1
 62
    18
420
        0
176
     1
 90
       50
176
     1
 90
        3
176
     1
 62
     5
420
      255
176
     1
290
     0
176
     1
 90
       50
176
     1
 90
       50
176
     1
 90
       50
176
     1
290
     0
176
     1
 90
       50
176
     1
 62
   256
176
     0
 40
1.0
176
     0
 90
        2
176
     1
  1
strokes_ogs.tif
176
     1
290
     0
176
     1
 40
1.0
176
     1
 40
1.0
176
     1
1001
ACAD
1000
AcDbSavedByObjectVersion
1070
     0
  0
VISUALSTYLE
  5
3A
102
{ACAD_REACTORS
330
29
102
}
330
29
100
AcDbVisualStyle
  2
Shades of Gray
 70
    23
177
     3
291
     0
 70
    58
 90
        2
176
     1
 90
        2
176
     1
 90
        3
176
     1
 90
        0
176
     1
 40
0.6
176
     1
 40
30.0
176
     1
 62
     7
420
 16777215
176
     1
 90
        2
176
     1
 90
        2
176
     1
 62
     7
176
     1
 62
     7
176
     1
 90
        1
176
     1
 90
        1
176
     1
 40
40.0
176
     1
 90
        8
176
     1
 62
     7
176
     1
 40
1.0
176
     1
 90
        1
176
     1
 90
        6
176
     1
 90
        2
176
     1
 62
     7
176
     1
 90
        3
176
     1
 90
        0
176
     1
 90
        0
176
     1
290
     0
176
     1
 90
        1
176
     1
 40
0.0
176
     1
 90
        0
176
     1
290
     0
176
     1
290
     1
176
     1
290
     1
176
     1
290
     0
176
     1
290
     0
176
     1
290
     0
176
     1
290
     0
176
     1
290
     0
176
     1
290
     0
176
     1
 90
       50
176
     1
 40
0.0
176
     1
 40
1.0
176
     1
 90
        0
176
     1
 62
    18
420
        0
176
     1
 90
       50
176
     1
 90
        3
176
     1
 62
     5
420
      255
176
     1
290
     0
176
     1
 90
       50
176
     1
 90
       50
176
     1
 90
       50
176
     1
290
     0
176
     1
 90
       50
176
     1
 62
   256
176
     0
 40
1.0
176
     0
 90
        2
176
     1
  1
strokes_ogs.tif
176
     1
290
     0
176
     1
 40
1.0
176
     1
 40
1.0
176
     1
1001
ACAD
1000
AcDbSavedByObjectVersion
1070
     0
  0
VISUALSTYLE
  5
3B
102
{ACAD_REACTORS
330
29
102
}
330
29
100
AcDbVisualStyle
  2
Sketchy
 70
    24
177
     3
291
     0
 70
    58
 90
        1
176
     1
 90
        2
176
     1
 90
        2
176
     1
 90
        0
176
     1
 40
0.6
176
     1
 40
30.0
176
     1
 62
     7
420
 16777215
176
     1
 90
        2
176
     1
 90
        2
176
     1
 62
     7
176
     1
 62
     7
176
     1
 90
        1
176
     1
 90
        1
176
     1
 40
40.0
176
     1
 90
       11
176
     1
 62
     7
176
     1
 40
1.0
176
     1
 90
        1
176
     1
 90
        6
176
     1
 90
        2
176
     1
 62
     7
176
     1
 90
        6
176
     1
 90
        0
176
     1
 90
        0
176
     1
290
     0
176
     1
 90
        1
176
     1
 40
0.0
176
     1
 90
        0
176
     1
290
     0
176
     1
290
     1
176
     1
290
     1
176
     1
290
     0
176
     1
290
     0
176
     1
290
     0
176
     1
290
     0
176
     1
290
     0
176
     1
290
     0
176
     1
 90
       50
176
     1
 40
0.0
176
     1
 40
1.0
176
     1
 90
        0
176
     1
 62
    18
420
        0
176
     1
 90
       50
176
     1
 90
        3
176
     1
 62
     5
420
      255
176
     1
290
     0
176
     1
 90
       50
176
     1
 90
       50
176
     1
 90
       50
176
     1
290
     0
176
     1
 90
       50
176
     1
 62
   256
176
     0
 40
1.0
176
     0
 90
        2
176
     1
  1
strokes_ogs.tif
176
     1
290
     0
176
     1
 40
1.0
176
     1
 40
1.0
176
     1
1001
ACAD
1000
AcDbSavedByObjectVersion
1070
     0
  0
VISUALSTYLE
  5
36
102
{ACAD_REACTORS
330
29
102
}
330
29
100
AcDbVisualStyle
  2
Thicken
 70
    13
177
     3
291
     1
 70
    58
 90
        2
176
     1
 90
        2
176
     1
 90
        0
176
     1
 90
        0
176
     1
 40
0.6
176
     1
 40
30.0
176
     1
 62
     7
420
 16777215
176
     1
 90
        1
176
     1
 90
        4
176
     1
 62
     7
176
     1
 62
   257
176
     1
 90
        1
176
     1
 90
        1
176
     1
 40
1.0
176
     1
 90
       12
176
     1
 62
     7
176
     1
 40
1.0
176
     1
 90
        1
176
     1
 90
        6
176
     1
 90
        2
176
     1
 62
     7
176
     1
 90
        5
176
     1
 90
        0
176
     1
 90
        0
176
     1
290
     0
176
     1
 90
        1
176
     1
 40
0.0
176
     1
 90
        0
176
     1
290
     0
176
     1
290
     1
176
     1
290
     1
176
     1
290
     0
176
     1
290
     0
176
     1
290
     0
176
     1
290
     0
176
     1
290
     0
176
     1
290
     0
176
     1
 90
       50
176
     1
 40
0.0
176
     1
 40
1.0
176
     1
 90
        0
176
     1
 62
    18
420
        0
176
     1
 90
       50
176
     1
 90
        3
176
     1
 62
     5
420
      255
176
     1
290
     0
176
     1
 90
       50
176
     1
 90
       50
176
     1
 90
       50
176
     1
290
     0
176
     1
 90
       50
176
     1
 62
   256
176
     0
 40
1.0
176
     0
 90
        2
176
     1
  1
strokes_ogs.tif
176
     1
290
     0
176
     1
 40
1.0
176
     1
 40
1.0
176
     1
1001
ACAD
1000
AcDbSavedByObjectVersion
1070
     0
  0
VISUALSTYLE
  5
30
102
{ACAD_REACTORS
330
29
102
}
330
29
100
AcDbVisualStyle
  2
Wireframe
 70
     5
177
     3
291
     0
 70
    58
 90
        0
176
     1
 90
        2
176
     1
 90
        0
176
     1
 90
        0
176
     1
 40
0.6
176
     1
 40
30.0
176
     1
 62
     7
420
 16777215
176
     1
 90
        1
176
     1
 90
        4
176
     1
 62
     7
176
     1
 62
   257
176
     1
 90
        1
176
     1
 90
        1
176
     1
 40
1.0
176
     1
 90
        0
176
     1
 62
   257
176
     1
 40
1.0
176
     1
 90
        1
176
     1
 90
        6
176
     1
 90
        2
176
     1
 62
     7
176
     1
 90
        3
176
     1
 90
        0
176
     1
 90
        0
176
     1
290
     0
176
     1
 90
        1
176
     1
 40
0.0
176
     1
 90
        0
176
     1
290
     0
176
     1
290
     1
176
     1
290
     1
176
     1
290
     0
176
     1
290
     0
176
     1
290
     0
176
     1
290
     0
176
     1
290
     0
176
     1
290
     0
176
     1
 90
       50
176
     1
 40
0.0
176
     1
 40
1.0
176
     1
 90
        0
176
     1
 62
    18
420
        0
176
     1
 90
       50
176
     1
 90
        3
176
     1
 62
     5
420
      255
176
     1
290
     0
176
     1
 90
       50
176
     1
 90
       50
176
     1
 90
       50
176
     1
290
     0
176
     1
 90
       50
176
     1
 62
   256
176
     0
 40
1.0
176
     0
 90
        2
176
     1
  1
strokes_ogs.tif
176
     1
290
     0
176
     1
 40
1.0
176
     1
 40
1.0
176
     1
1001
ACAD
1000
AcDbSavedByObjectVersion
1070
     0
  0
VISUALSTYLE
  5
3C
102
{ACAD_REACTORS
330
29
102
}
330
29
100
AcDbVisualStyle
  2
X-Ray
 70
    25
177
     3
291
     0
 70
    58
 90
        2
176
     1
 90
        2
176
     1
 90
        1
176
     1
 90
        1
176
     1
 40
0.5
176
     1
 40
30.0
176
     1
 62
     7
420
 16777215
176
     1
 90
        1
176
     1
 90
        0
176
     1
 62
     7
176
     1
 62
   257
176
     1
 90
        1
176
     1
 90
        1
176
     1
 40
1.0
176
     1
 90
        8
176
     1
 62
     7
176
     1
 40
1.0
176
     1
 90
        1
176
     1
 90
        6
176
     1
 90
        2
176
     1
 62
     7
176
     1
 90
        3
176
     1
 90
        0
176
     1
 90
        0
176
     1
290
     0
176
     1
 90
       13
176
     1
 40
0.0
176
     1
 90
        0
176
     1
290
     0
176
     1
290
     1
176
     1
290
     1
176
     1
290
     0
176
     1
290
     0
176
     1
290
     0
176
     1
290
     0
176
     1
290
     0
176
     1
290
     0
176
     1
 90
       50
176
     1
 40
0.0
176
     1
 40
1.0
176
     1
 90
        0
176
     1
 62
    18
420
        0
176
     1
 90
       50
176
     1
 90
        3
176
     1
 62
     5
420
      255
176
     1
290
     0
176
     1
 90
       50
176
     1
 90
       50
176
     1
 90
       50
176
     1
290
     0
176
     1
 90
       50
176
     1
 62
   256
176
     0
 40
1.0
176
     0
 90
        2
176
     1
  1
strokes_ogs.tif
176
     1
290
     0
176
     1
 40
1.0
176
     1
 40
1.0
176
     1
1001
ACAD
1000
AcDbSavedByObjectVersion
1070
     0
  0
DICTIONARYVAR
  5
139
102
{ACAD_REACTORS
330
134
102
}
330
134
100
DictionaryVariables
280
     0
  1
1:1
  0
DICTIONARYVAR
  5
136
102
{ACAD_REACTORS
330
134
102
}
330
134
100
DictionaryVariables
280
     0
  1
STANDARD
  0
DICTIONARYVAR
  5
135
102
{ACAD_REACTORS
330
134
102
}
330
134
100
DictionaryVariables
280
     0
  1
STANDARD
  0
DICTIONARYVAR
  5
137
102
{ACAD_REACTORS
330
134
102
}
330
134
100
DictionaryVariables
280
     0
  1
Imperial24
  0
DICTIONARYVAR
  5
138
102
{ACAD_REACTORS
330
134
102
}
330
134
100
DictionaryVariables
280
     0
  1
Imperial24
  0
DICTIONARY
  5
13F
330
6B
100
AcDbDictionary
280
     1
281
     1
  3
ACAD_XREC_ROUNDTRIP
360
140
  0
DICTIONARY
  5
1A
330
19
100
AcDbDictionary
280
     1
281
     1
  3
BUMPTILE
360
1C
  3
DIFFUSETILE
360
1B
  3
OPACITYTILE
360
1F
  3
REFLECTIONTILE
360
1E
  3
REFRACTIONTILE
360
20
  3
SPECULARTILE
360
1D
  0
DICTIONARY
  5
12
330
11
100
AcDbDictionary
280
     1
281
     1
  3
BUMPTILE
360
14
  3
DIFFUSETILE
360
13
  3
OPACITYTILE
360
17
  3
REFLECTIONTILE
360
16
  3
REFRACTIONTILE
360
18
  3
SPECULARTILE
360
15
  0
DICTIONARY
  5
22
330
21
100
AcDbDictionary
280
     1
281
     1
  3
BUMPTILE
360
24
  3
DIFFUSETILE
360
23
  3
OPACITYTILE
360
27
  3
REFLECTIONTILE
360
26
  3
REFRACTIONTILE
360
28
  3
SPECULARTILE
360
25
  0
DICTIONARY
  5
13D
330
69
100
AcDbDictionary
280
     1
281
     1
  3
ACAD_XREC_ROUNDTRIP
360
13E
  0
DICTIONARY
  5
13A
330
65
100
AcDbDictionary
280
     1
281
     1
  3
ACAD_ROUNDTRIP_2008_TABLESTYLE_CELLSTYLEMAP
360
13B
  0
XRECORD
  5
140
102
{ACAD_REACTORS
330
13F
102
}
330
13F
100
AcDbXrecord
280
     1
102
DISPLAYNAME
  1
Imperial24
102
FLAGS
 90
        0
  0
XRECORD
  5
1C
102
{ACAD_REACTORS
330
1A
102
}
330
1A
100
AcDbXrecord
280
     1
270
     1
271
     1
  0
XRECORD
  5
1B
102
{ACAD_REACTORS
330
1A
102
}
330
1A
100
AcDbXrecord
280
     1
270
     1
271
     1
  0
XRECORD
  5
1F
102
{ACAD_REACTORS
330
1A
102
}
330
1A
100
AcDbXrecord
280
     1
270
     1
271
     1
  0
XRECORD
  5
1E
102
{ACAD_REACTORS
330
1A
102
}
330
1A
100
AcDbXrecord
280
     1
270
     1
271
     1
  0
XRECORD
  5
20
102
{ACAD_REACTORS
330
1A
102
}
330
1A
100
AcDbXrecord
280
     1
270
     1
271
     1
  0
XRECORD
  5
1D
102
{ACAD_REACTORS
330
1A
102
}
330
1A
100
AcDbXrecord
280
     1
270
     1
271
     1
  0
XRECORD
  5
14
102
{ACAD_REACTORS
330
12
102
}
330
12
100
AcDbXrecord
280
     1
270
     1
271
     1
  0
XRECORD
  5
13
102
{ACAD_REACTORS
330
12
102
}
330
12
100
AcDbXrecord
280
     1
270
     1
271
     1
  0
XRECORD
  5
17
102
{ACAD_REACTORS
330
12
102
}
330
12
100
AcDbXrecord
280
     1
270
     1
271
     1
  0
XRECORD
  5
16
102
{ACAD_REACTORS
330
12
102
}
330
12
100
AcDbXrecord
280
     1
270
     1
271
     1
  0
XRECORD
  5
18
102
{ACAD_REACTORS
330
12
102
}
330
12
100
AcDbXrecord
280
     1
270
     1
271
     1
  0
XRECORD
  5
15
102
{ACAD_REACTORS
330
12
102
}
330
12
100
AcDbXrecord
280
     1
270
     1
271
     1
  0
XRECORD
  5
24
102
{ACAD_REACTORS
330
22
102
}
330
22
100
AcDbXrecord
280
     1
270
     1
271
     1
  0
XRECORD
  5
23
102
{ACAD_REACTORS
330
22
102
}
330
22
100
AcDbXrecord
280
     1
270
     1
271
     1
  0
XRECORD
  5
27
102
{ACAD_REACTORS
330
22
102
}
330
22
100
AcDbXrecord
280
     1
270
     1
271
     1
  0
XRECORD
  5
26
102
{ACAD_REACTORS
330
22
102
}
330
22
100
AcDbXrecord
280
     1
270
     1
271
     1
  0
XRECORD
  5
28
102
{ACAD_REACTORS
330
22
102
}
330
22
100
AcDbXrecord
280
     1
270
     1
271
     1
  0
XRECORD
  5
25
102
{ACAD_REACTORS
330
22
102
}
330
22
100
AcDbXrecord
280
     1
270
     1
271
     1
  0
XRECORD
  5
13E
102
{ACAD_REACTORS
330
13D
102
}
330
13D
100
AcDbXrecord
280
     1
102
DISPLAYNAME
  1
Imperial24
102
FLAGS
 90
        0
  0
CELLSTYLEMAP
  5
13B
102
{ACAD_REACTORS
330
13A
102
}
330
13A
100
AcDbCellStyleMap
 90
        3
300
CELLSTYLE
  1
TABLEFORMAT_BEGIN
 90
        5
170
     1
 91
        0
 92
    32768
 62
   257
 93
        1
300
CONTENTFORMAT
  1
CONTENTFORMAT_BEGIN
 90
        0
 91
        0
 92
      512
 93
        0
300

 40
0.0
140
1.0
 94
        5
 62
     0
340
55
144
0.25
309
CONTENTFORMAT_END
171
     0
 94
        0
309
TABLEFORMAT_END
  1
CELLSTYLE_BEGIN
 90
        1
 91
        1
300
_TITLE
309
CELLSTYLE_END
300
CELLSTYLE
  1
TABLEFORMAT_BEGIN
 90
        5
170
     1
 91
        0
 92
        0
 62
   257
 93
        1
300
CONTENTFORMAT
  1
CONTENTFORMAT_BEGIN
 90
        0
 91
        0
 92
      512
 93
        0
300

 40
0.0
140
1.0
 94
        5
 62
     0
340
55
144
0.18
309
CONTENTFORMAT_END
171
     0
 94
        0
309
TABLEFORMAT_END
  1
CELLSTYLE_BEGIN
 90
        2
 91
        1
300
_HEADER
309
CELLSTYLE_END
300
CELLSTYLE
  1
TABLEFORMAT_BEGIN
 90
        5
170
     1
 91
        0
 92
        0
 62
   257
 93
        1
300
CONTENTFORMAT
  1
CONTENTFORMAT_BEGIN
 90
        0
 91
        0
 92
      512
 93
        0
300

 40
0.0
140
1.0
 94
        2
 62
     0
340
55
144
0.18
309
CONTENTFORMAT_END
171
     0
 94
        0
309
TABLEFORMAT_END
  1
CELLSTYLE_BEGIN
 90
        3
 91
        2
300
_DATA
309
CELLSTYLE_END
  0
ENDSEC
  0
EOF
